>
 >
The Healing

The Healing Guitar Tabs

Ivoryline - The Healing chords, tabs, tablatures, lyrics

Guitar lessons | Add/correct | Request | Top 50 tabs Artists:  A B C D E F G H I J K L M N O P Q R S T U V W X Y Z 0-9

The Healing Guitar Tabs – Ivoryline

CD, Sheet music, Poster

Do you like The Healing? Share with your friends now
Tabs
        The Healing

Genre: Rock
Info:
 ^ | Bend
 ~ | Vibrato
 / | Slide Onto
 . | Palm Mute
 x | Fret Mute

_____________________________________________________________________________
Guitar 1:
(DbAbDbGbBbeb)

        Intro:

> I'm pretty sure they tap this riff which gives it part of the keyboard sounding
  effect, the rest of it's just some weird fuzz thing.
eb|---------------------------------------------------------------------------------|
Bb|-17-9-14-17-9-14-17-9-16-9-12-16-9-12-16-9---------------------------------------|
Gb|-------------------------------------------16-8-9-16-8-9-16-8-16-6-9-16-6-9-16-6-|
Db|---------------------------------------------------------------------------------|
Ab|---------------------------------------------------------------------------------|
Db|---------------------------------------------------------------------------------|
  |
eb|---------------------------------------------------------------------------------|
Bb|-17-9-14-17-9-14-17-9-16-9-12-16-9-12-16-9---------------------------------------|
Gb|-------------------------------------------16-8-9-16-8-9-16-8-18-8-9-18-8-9-18-8-|
Db|---------------------------------------------------------------------------------|
Ab|---------------------------------------------------------------------------------|
Db|---------------------------------------------------------------------------------|


        Verse:

> Picking with delay
eb|-----------------------------------------------------------------|
Bb|-------------7-------------------------------7-----5-7-5-7-5-----|
Gb|-9-----8-----------4-6-4-6-4-----9-----8---------------------6---|
Db|---6-6---6-6---6-6-----------6-----6-6---6-6---6-6---------------|
Ab|-----------------------------------------------------------------|
Db|-----------------------------------------------------------------|
  |
eb|-----------------------------------------------------------------|
Bb|-------------7-------------------------------7-----5-7-5-7-5-----|
Gb|-9-----8-----------4-6-4-6-4-----9-----8---------------------6---|
Db|---6-6---6-6---6-6-----------6-----6-6---6-6---6-6---------------|
Ab|-----------------------------------------------------------------|
Db|-----------------------------------------------------------------|
  |
eb|-----------------------------------------------------------------|
Bb|-------------7-------------------------------7-----5-7-5-7-5-----|
Gb|-9-----8-----------4-6-4-6-4-----9-----8---------------------6---|
Db|---6-6---6-6---6-6-----------6-----6-6---6-6---6-6---------------|
Ab|-----------------------------------------------------------------|
Db|-----------------------------------------------------------------|
  |
eb|-----------------------------------------------------------------|
Bb|-------------7-------------------------------7-----5-7-5-7-5-----|
Gb|-9-----8-----------4-6-4-6-4-----9-----8---------------------6---|
Db|---6-6---6-6---6-6-----------6-----6-6---6-6---6-6---------------|
Ab|-----------------------------------------------------------------|
Db|-----------------------------------------------------------------|


        Pre-Chorus:

eb|------------------------------------------------------------------------------------|
Bb|-12-12-12-12-12-12-12-12-12-12-12-12-12-12-12-12-12-9-9-9-9-9-9-9-9-7-7-7-7-7-7-7-7-|
Gb|------------------------------------------------------------------------------------|
Db|------------------------------------------------------------------------------------|
Ab|------------------------------------------------------------------------------------|
Db|------------------------------------------------------------------------------------|
  |
eb|------------------------------------------------------------------------------------|
Bb|-12-12-12-12-12-12-12-12-12-12-12-12-12-12-12-12-12-9-9-9-9-9-9-9-9-----------------|
Gb|--------------------------------------------------------------------9-9-9-9-9-9-9-9-|
Db|------------------------------------------------------------------------------------|
Ab|------------------------------------------------------------------------------------|
Db|------------------------------------------------------------------------------------|


        Chorus:

> Tapping
eb|---------------------------------------------------------------------------------|
Bb|-17-9-14-17-9-14-17-9-16-9-12-16-9-12-16-9---------------------------------------|
Gb|-------------------------------------------16-8-9-16-8-9-16-8-16-6-9-16-6-9-16-6-|
Db|---------------------------------------------------------------------------------|
Ab|---------------------------------------------------------------------------------|
Db|---------------------------------------------------------------------------------|
  |
eb|---------------------------------------------------------------------------------|
Bb|-17-9-14-17-9-14-17-9-16-9-12-16-9-12-16-9---------------------------------------|
Gb|-------------------------------------------16-8-9-16-8-9-16-8-18-8-9-18-8-9-18-8-|
Db|---------------------------------------------------------------------------------|
Ab|---------------------------------------------------------------------------------|
Db|---------------------------------------------------------------------------------|
  |
eb|---------------------------------------------------------------------------------|
Bb|-17-9-14-17-9-14-17-9-16-9-12-16-9-12-16-9---------------------------------------|
Gb|-------------------------------------------16-8-9-16-8-9-16-8-16-6-9-16-6-9-16-6-|
Db|---------------------------------------------------------------------------------|
Ab|---------------------------------------------------------------------------------|
Db|---------------------------------------------------------------------------------|
  |
eb|---------------------------------------------------------------------------------|
Bb|-17-9-14-17-9-14-17-9-16-9-12-16-9-12-16-9---------------------------------------|
Gb|-------------------------------------------16-8-9-16-8-9-16-8-18-8-9-18-8-9-18-8-|
Db|---------------------------------------------------------------------------------|
Ab|---------------------------------------------------------------------------------|
Db|---------------------------------------------------------------------------------|


        Verse:

> Clean with delay (make sure the delay effect is timed right here otherwise it won't
  sound right)
eb|----12---12---12---12-11-11-----------------------|
Bb|----------------------------9-9---9---9---9-12-12-|
Gb|--------------------------------------------------|
Db|--------------------------------------------------|
Ab|--------------------------------------------------|
Db|--------------------------------------------------|
  |
eb|----12---12---12---12-9-9-11-11---11---11---11-----|
Bb|-----------------------------------------------9-9-|
Gb|---------------------------------------------------|
Db|---------------------------------------------------|
Ab|---------------------------------------------------|
Db|---------------------------------------------------|
> These two bars repeat throughout the rest of the verse as a 3rd guitar
  while Guitar 1 picks up with the next two bars.
  |
> Distortion
eb|-----------------------------------------------------------------|
Bb|-------------7-------------------------------7-----5-7-5-7-5-----|
Gb|-9-----8-----------4-6-4-6-4-----9-----8---------------------6---|
Db|---6-6---6-6---6-6-----------6-----6-6---6-6---6-6---------------|
Ab|-----------------------------------------------------------------|
Db|-----------------------------------------------------------------|
  |
eb|-----------------------------------------------------------------|
Bb|-------------7-------------------------------7-----5-7-5-7-5-----|
Gb|-9-----8-----------4-6-4-6-4-----9-----8---------------------6---|
Db|---6-6---6-6---6-6-----------6-----6-6---6-6---6-6---------------|
Ab|-----------------------------------------------------------------|
Db|-----------------------------------------------------------------|


        Pre-Chorus:

eb|------------------------------------------------------------------------------------|
Bb|-12-12-12-12-12-12-12-12-12-12-12-12-12-12-12-12-12-9-9-9-9-9-9-9-9-7-7-7-7-7-7-7-7-|
Gb|------------------------------------------------------------------------------------|
Db|------------------------------------------------------------------------------------|
Ab|------------------------------------------------------------------------------------|
Db|------------------------------------------------------------------------------------|
  |
eb|------------------------------------------------------------------------------------|
Bb|-12-12-12-12-12-12-12-12-12-12-12-12-12-12-12-12-12-9-9-9-9-9-9-9-9-----------------|
Gb|--------------------------------------------------------------------9-9-9-9-9-9-9-9-|
Db|------------------------------------------------------------------------------------|
Ab|------------------------------------------------------------------------------------|
Db|------------------------------------------------------------------------------------|


        Chorus:

> Tapping
eb|---------------------------------------------------------------------------------|
Bb|-17-9-14-17-9-14-17-9-16-9-12-16-9-12-16-9---------------------------------------|
Gb|-------------------------------------------16-8-9-16-8-9-16-8-16-6-9-16-6-9-16-6-|
Db|---------------------------------------------------------------------------------|
Ab|---------------------------------------------------------------------------------|
Db|---------------------------------------------------------------------------------|
  |
eb|---------------------------------------------------------------------------------|
Bb|-17-9-14-17-9-14-17-9-16-9-12-16-9-12-16-9---------------------------------------|
Gb|-------------------------------------------16-8-9-16-8-9-16-8-18-8-9-18-8-9-18-8-|
Db|---------------------------------------------------------------------------------|
Ab|---------------------------------------------------------------------------------|
Db|---------------------------------------------------------------------------------|
  |
eb|---------------------------------------------------------------------------------|
Bb|-17-9-14-17-9-14-17-9-16-9-12-16-9-12-16-9---------------------------------------|
Gb|-------------------------------------------16-8-9-16-8-9-16-8-16-6-9-16-6-9-16-6-|
Db|---------------------------------------------------------------------------------|
Ab|---------------------------------------------------------------------------------|
Db|---------------------------------------------------------------------------------|
  |
eb|---------------------------------------------------------------------------------|
Bb|-17-9-14-17-9-14-17-9-16-9-12-16-9-12-16-9---------------------------------------|
Gb|-------------------------------------------16-8-9-16-8-9-16-8-18-8-9-18-8-9-18-8-|
Db|---------------------------------------------------------------------------------|
Ab|---------------------------------------------------------------------------------|
Db|---------------------------------------------------------------------------------|


        Bridge:

> Tremolo picking
eb|------------------------------------------------------------------------|
Bb|-9-9-9-9-9-9-9-9-9-10-10-10-10-10-10-10-7-7-7-7-7-7-7-7-7-5-5-5-5-5-5-5-|
Gb|------------------------------------------------------------------------|
Db|------------------------------------------------------------------------|
Ab|------------------------------------------------------------------------|
Db|------------------------------------------------------------------------|
  |
eb|-------------------------------------------------------------------------------|
Bb|-9-9-9-9-9-9-9-9-9-10-10-10-10-10-10-10-7-7-7-7-7-7-7-7-7-17-17-17-17-16-16-16-|
Gb|-------------------------------------------------------------------------------|
Db|-------------------------------------------------------------------------------|
Ab|-------------------------------------------------------------------------------|
Db|-------------------------------------------------------------------------------|
  |
eb|------------------------------------------------------------------------|
Bb|-9-9-9-9-9-9-9-9-9-10-10-10-10-10-10-10-7-7-7-7-7-7-7-7-7-5-5-5-5-5-5-5-|
Gb|------------------------------------------------------------------------|
Db|------------------------------------------------------------------------|
Ab|------------------------------------------------------------------------|
Db|------------------------------------------------------------------------|
  |
eb|------------------------------------------------------------------------|
Bb|-9-9-9-9-9-9-9-9-9-10-10-10-10-10-10-10-7-7-7-7-7-7-7-7-7-7-7-7-7-7-7//-|
Gb|------------------------------------------------------------------------|
Db|------------------------------------------------------------------------|
Ab|------------------------------------------------------------------------|
Db|------------------------------------------------------------------------|
  |
> Clean with delay, tapping
eb|---------------------------------------------------------------------------------|
Bb|-17-9-14-17-9-14-17-9-16-9-12-16-9-12-16-9---------------------------------------|
Gb|-------------------------------------------16-8-9-16-8-9-16-8-16-6-9-16-6-9-16-6-|
Db|---------------------------------------------------------------------------------|
Ab|---------------------------------------------------------------------------------|
Db|---------------------------------------------------------------------------------|


        Chorus:

> Tapping
eb|---------------------------------------------------------------------------------|
Bb|-17-9-14-17-9-14-17-9-16-9-12-16-9-12-16-9---------------------------------------|
Gb|-------------------------------------------16-8-9-16-8-9-16-8-16-6-9-16-6-9-16-6-|
Db|---------------------------------------------------------------------------------|
Ab|---------------------------------------------------------------------------------|
Db|---------------------------------------------------------------------------------|
  |
eb|---------------------------------------------------------------------------------|
Bb|-17-9-14-17-9-14-17-9-16-9-12-16-9-12-16-9---------------------------------------|
Gb|-------------------------------------------16-8-9-16-8-9-16-8-18-8-9-18-8-9-18-8-|
Db|---------------------------------------------------------------------------------|
Ab|---------------------------------------------------------------------------------|
Db|---------------------------------------------------------------------------------|
  |
eb|---------------------------------------------------------------------------------|
Bb|-17-9-14-17-9-14-17-9-16-9-12-16-9-12-16-9---------------------------------------|
Gb|-------------------------------------------16-8-9-16-8-9-16-8-16-6-9-16-6-9-16-6-|
Db|---------------------------------------------------------------------------------|
Ab|---------------------------------------------------------------------------------|
Db|---------------------------------------------------------------------------------|
  |
eb|---------------------------------------------------------------------------------|
Bb|-17-9-14-17-9-14-17-9-16-9-12-16-9-12-16-9---------------------------------------|
Gb|-------------------------------------------16-8-9-16-8-9-16-8-18-8-9-18-8-9-18-8-|
Db|---------------------------------------------------------------------------------|
Ab|---------------------------------------------------------------------------------|
Db|---------------------------------------------------------------------------------|


_____________________________________________________________________________
Guitar 2:
(DbAbDbGbBbeb)

        Intro:

> Distortion
eb|----------------------------------------------------------------|
Bb|--------------------------------5---5-5---------2---2-2---------|
Gb|--------------------------------6---6-6---------4---4-4---------|
Db|-7-7-7-7-7------4---4-4---------6---6-6---------4---4-4---------|
Ab|-7-7-7-7-7------4---4-4---------4---4-4---------2---2-2---------|
Db|-7-7-7-7-7------4---4-4-----------------------------------------|
  |
eb|----------------------------------------------------------------|
Bb|----------------------------------------------------------------|
Gb|----------------------------------------------------------------|
Db|-7-7-7-7-7------4---4-4---------2-2-2-2-2-------2-2-2-2-2-------|
Ab|-7-7-7-7-7------4---4-4---------2-2-2-2-2-------2-2-2-2-2-------|
Db|-7-7-7-7-7------4---4-4---------2-2-2-2-2-------2-2-2-2-2-------|


        Verse:

> Picking with delay
eb|-----------------------------------------------------------------|
Bb|-------------7-------------------------------7-------------------|
Gb|-9-----8-------------------------9-----8---------------6---6---6-|
Db|---6-6---6-6---6-6-9---9---9---9---6-6---6-6---6-6-9-------------|
Ab|-----------------------------------------------------------------|
Db|-----------------------------------------------------------------|
  |
eb|-----------------------------------------------------------------|
Bb|-------------7-------------------------------7-------------------|
Gb|-9-----8-------------------------9-----8---------------6---6---6-|
Db|---6-6---6-6---6-6-9---9---9---9---6-6---6-6---6-6-9-------------|
Ab|-----------------------------------------------------------------|
Db|-----------------------------------------------------------------|
  |
eb|-----------------------------------------------------------------|
Bb|-------------7-------------------------------7-------------------|
Gb|-9-----8-------------------------9-----8---------------6---6---6-|
Db|---6-6---6-6---6-6-9---9---9---9---6-6---6-6---6-6-9-------------|
Ab|-----------------------------------------------------------------|
Db|-----------------------------------------------------------------|
  |
eb|-----------------------------------------------------------------|
Bb|-------------7-------------------------------7-------------------|
Gb|-9-----8-------------------------9-----8---------------8-8-8-8-8-|
Db|---6-6---6-6---6-6-9---9---9---9---6-6---6-6---6-6-9-------------|
Ab|-----------------------------------------------------------------|
Db|-----------------------------------------------------------------|


        Pre-Chorus:

eb|-------------------------------------------------------------------------|
Bb|-------------------------------------------------------------------------|
Gb|-8-9-9-9-9-9-9-9-9-10-10-10-10-10-10-10-10-8-8-8-8-8-8-8-8-8-8-8-8-6-6-6-|
Db|-------------------------------------------------------------------------|
Ab|-------------------------------------------------------------------------|
Db|-------------------------------------------------------------------------|
  |
eb|---------------------------------------------------------------------------------------|
Bb|---------------------------------------------------------------------------------------|
Gb|-6-9-9-9-9-9-9-9-9-9-10-10-10-10-10-10-10-13-13-13-13-13-13-13-13-16-16-16-16-16-16-16-|
Db|---------------------------------------------------------------------------------------|
Ab|---------------------------------------------------------------------------------------|
Db|---------------------------------------------------------------------------------------|


        Chorus:

eb|----------------------------------------------------------------|
Bb|--------------------------------5---5-5---------2---2-2---------|
Gb|--------------------------------6---6-6---------4---4-4---------|
Db|-7-7-7-7-7------4---4-4---------6---6-6---------4---4-4---------|
Ab|-7-7-7-7-7------4---4-4---------4---4-4---------2---2-2---------|
Db|-7-7-7-7-7------4---4-4-----------------------------------------|
  |
eb|----------------------------------------------------------------|
Bb|----------------------------------------------------------------|
Gb|----------------------------------------------------------------|
Db|-7-7-7-7-7------4---4-4---------2-2-2-2-2-------2-2-2-2-2-------|
Ab|-7-7-7-7-7------4---4-4---------2-2-2-2-2-------2-2-2-2-2-------|
Db|-7-7-7-7-7------4---4-4---------2-2-2-2-2-------2-2-2-2-2-------|
  |
eb|----------------------------------------------------------------|
Bb|--------------------------------5---5-5---------2---2-2---------|
Gb|--------------------------------6---6-6---------4---4-4---------|
Db|-7-7-7-7-7------4---4-4---------6---6-6---------4---4-4---------|
Ab|-7-7-7-7-7------4---4-4---------4---4-4---------2---2-2---------|
Db|-7-7-7-7-7------4---4-4-----------------------------------------|
  |
eb|----------------------------------------------------------------|
Bb|----------------------------------------------------------------|
Gb|----------------------------------------------------------------|
Db|-7-7-7-7-7------4---4-4---------2-2-2-2-2-------4-4-4-4-4-------|
Ab|-7-7-7-7-7------4---4-4---------2-2-2-2-2-------4-4-4-4-4-------|
Db|-7-7-7-7-7------4---4-4---------2-2-2-2-2-------4-4-4-4-4-------|


        Verse:

> Dist with delay (again, make sure the delay effect is timed right here
  otherwise it won't sound right)
eb|-----------------------------------------|
Bb|-----------------------------------------|
Gb|-----------------------------------------|
Db|-----------------------------------------|
Ab|-----------------------------------------|
Db|-----------------------------------------|
  |
eb|-----------------------------------------|
Bb|-----------------------------------------|
Gb|-9---9---9---9---6-6-8---8---8---8-------|
Db|-------------------------------------6-6-|
Ab|-----------------------------------------|
Db|-----------------------------------------|
> These two bars repeat throughout the rest of the verse as a 3rd guitar
  while Guitar 1 picks up with the next two bars.
  |
> Distortion
eb|-----------------------------------------------------------------|
Bb|-------------7-------------------------------7-------------------|
Gb|-9-----8-------------------------9-----8---------------6---6---6-|
Db|---6-6---6-6---6-6-9---9---9---9---6-6---6-6---6-6-9-------------|
Ab|-----------------------------------------------------------------|
Db|-----------------------------------------------------------------|
  |
eb|-----------------------------------------------------------------|
Bb|-------------7-------------------------------7-------------------|
Gb|-9-----8-------------------------9-----8---------------8-8-8-8-8-|
Db|---6-6---6-6---6-6-9---9---9---9---6-6---6-6---6-6-9-------------|
Ab|-----------------------------------------------------------------|
Db|-----------------------------------------------------------------|


        Pre-Chorus:

eb|-------------------------------------------------------------------------|
Bb|-------------------------------------------------------------------------|
Gb|-8-9-9-9-9-9-9-9-9-10-10-10-10-10-10-10-10-8-8-8-8-8-8-8-8-8-8-8-8-6-6-6-|
Db|-------------------------------------------------------------------------|
Ab|-------------------------------------------------------------------------|
Db|-------------------------------------------------------------------------|
  |
eb|---------------------------------------------------------------------------------------|
Bb|---------------------------------------------------------------------------------------|
Gb|-6-9-9-9-9-9-9-9-9-9-10-10-10-10-10-10-10-13-13-13-13-13-13-13-13-16-16-16-16-16-16-16-|
Db|---------------------------------------------------------------------------------------|
Ab|---------------------------------------------------------------------------------------|
Db|---------------------------------------------------------------------------------------|


        Chorus:

eb|----------------------------------------------------------------|
Bb|--------------------------------5---5-5---------2---2-2---------|
Gb|--------------------------------6---6-6---------4---4-4---------|
Db|-7-7-7-7-7------4---4-4---------6---6-6---------4---4-4---------|
Ab|-7-7-7-7-7------4---4-4---------4---4-4---------2---2-2---------|
Db|-7-7-7-7-7------4---4-4-----------------------------------------|
  |
eb|----------------------------------------------------------------|
Bb|----------------------------------------------------------------|
Gb|----------------------------------------------------------------|
Db|-7-7-7-7-7------4---4-4---------2-2-2-2-2-------2-2-2-2-2-------|
Ab|-7-7-7-7-7------4---4-4---------2-2-2-2-2-------2-2-2-2-2-------|
Db|-7-7-7-7-7------4---4-4---------2-2-2-2-2-------2-2-2-2-2-------|
  |
eb|----------------------------------------------------------------|
Bb|--------------------------------5---5-5---------2---2-2---------|
Gb|--------------------------------6---6-6---------4---4-4---------|
Db|-7-7-7-7-7------4---4-4---------6---6-6---------4---4-4---------|
Ab|-7-7-7-7-7------4---4-4---------4---4-4---------2---2-2---------|
Db|-7-7-7-7-7------4---4-4-----------------------------------------|
  |
eb|----------------------------------------------------------------|
Bb|----------------------------------------------------------------|
Gb|----------------------------------------------------------------|
Db|-7-7-7-7-7------4---4-4---------2-2-2-2-2-------4-4-4-4-4-------|
Ab|-7-7-7-7-7------4---4-4---------2-2-2-2-2-------4-4-4-4-4-------|
Db|-7-7-7-7-7------4---4-4---------2-2-2-2-2-------4-4-4-4-4-------|


        Bridge:

eb|------------------------------------------------------------------|
Bb|------------------------------------------------------------------|
Gb|--------------------6-6---6----6-6--------------------------------|
Db|-7---7---7------7-7-6-6---6----6-6-4-4---4------4-4-2-2---2-------|
Ab|-7---7---7------7-7-4-4---4----4-4-4-4---4------4-4-2-2---2-------|
Db|-7---7---7------7-7----------------4-4---4------4-4-2-2---2-------|
  |
eb|-------------------------------------------------------------------|
Bb|-------------------------------------------------------------------|
Gb|--------------------6-6---6----6-6-4-4---4------4-4----------------|
Db|-7---7---7------7-7-6-6---6----6-6-4-4---4------4-4--2--2--2--4--4-|
Ab|-7---7---7------7-7-4-4---4----4-4-2-2---2------2-2--2--2--2--4--4-|
Db|-7---7---7------7-7----------------------------------2--2--2--4--4-|
  |
eb|------------------------------------------------------------------|
Bb|------------------------------------------------------------------|
Gb|--------------------6-6---6----6-6--------------------------------|
Db|-7---7---7------7-7-6-6---6----6-6-4-4---4------4-4-2-2-2-2-2-2-2-|
Ab|-7---7---7------7-7-4-4---4----4-4-4-4---4------4-4-2-2-2-2-2-2-2-|
Db|-7---7---7------7-7----------------4-4---4------4-4-2-2-2-2-2-2-2-|
  |
eb|------------------------------------------------------------------|
Bb|------------------------------------------------------------------|
Gb|--------------------6-6---6----6-6-4-4---4------4-4---------------|
Db|-7---7---7------7-7-6-6---6----6-6-4-4---4------4-4-2-2-2-2-4-4-4-|
Ab|-7---7---7------7-7-4-4---4----4-4-2-2---2------2-2-2-2-2-2-4-4-4-|
Db|-7---7---7------7-7---------------------------------2-2-2-2-4-4-4-|
  |
> Clean
eb|---------------------------------------------------------------|
Bb|-9-9-9-9-9-9-9-9-9-9-9-9-9-9-9-9-9-----------------------------|
Gb|-----------------------------------9-9-9-9-9-9-9-9-8-8-8-8-8-8-|
Db|---------------------------------------------------------------|
Ab|---------------------------------------------------------------|
Db|---------------------------------------------------------------|


        Chorus:

eb|----------------------------------------------------------------|
Bb|--------------------------------5---5-5---------2---2-2---------|
Gb|--------------------------------6---6-6---------4---4-4---------|
Db|-7-7-7-7-7------4---4-4---------6---6-6---------4---4-4---------|
Ab|-7-7-7-7-7------4---4-4---------4---4-4---------2---2-2---------|
Db|-7-7-7-7-7------4---4-4-----------------------------------------|
  |
eb|----------------------------------------------------------------|
Bb|----------------------------------------------------------------|
Gb|----------------------------------------------------------------|
Db|-7-7-7-7-7------4---4-4---------2-2-2-2-2-------2-2-2-2-2-------|
Ab|-7-7-7-7-7------4---4-4---------2-2-2-2-2-------2-2-2-2-2-------|
Db|-7-7-7-7-7------4---4-4---------2-2-2-2-2-------2-2-2-2-2-------|
  |
eb|----------------------------------------------------------------|
Bb|--------------------------------5---5-5---------2---2-2---------|
Gb|--------------------------------6---6-6---------4---4-4---------|
Db|-7-7-7-7-7------4---4-4---------6---6-6---------4---4-4---------|
Ab|-7-7-7-7-7------4---4-4---------4---4-4---------2---2-2---------|
Db|-7-7-7-7-7------4---4-4-----------------------------------------|
  |
eb|----------------------------------------------------------------|
Bb|----------------------------------------------------------------|
Gb|----------------------------------------------------------------|
Db|-7-7-7-7-7------4---4-4---------2-2-2-2-2-2-2-2-2-4-4-4-4-4-4-4-|
Ab|-7-7-7-7-7------4---4-4---------2-2-2-2-2-2-2-2-2-4-4-4-4-4-4-4-|
Db|-7-7-7-7-7------4---4-4---------2-2-2-2-2-2-2-2-2-4-4-4-4-4-4-4-|





Comments


Popular Ivoryline tabs & chords
All You Ever Hear Bass Tabs
Days End Bass Tabs
Instincts Bass Tabs
Vessels Bass Tabs
Made From Dust Chords
All You Ever Hear Tabs
Be Still And Breathe Tabs
Remind Me I'm Alive Tabs
Vessels Tabs
Made From Dust Ukulele


Song lyrics



↑ Back to top | Tablatures and chords are parodies/interpretations of the original songs. You may use it for private study, scholarship, research or language learning purposes only
© 2014 AZChords.com Contact us | Privacy policy | DMCA | Add/correct tabs | Request tabs | Top 50 tabs