>
 >
Remind Me I'm Alive

Remind Me I'm Alive Guitar Tabs

Ivoryline - Remind Me I'm Alive chords, tabs, tablatures, lyrics

Guitar lessons | Add/correct | Request | Top 50 tabs Artists:  A B C D E F G H I J K L M N O P Q R S T U V W X Y Z 0-9

Remind Me I'm Alive Guitar Tabs – Ivoryline

CD, Sheet music, Poster

Do you like Remind Me I'm Alive? Share with your friends now
Tabs
	Remind Me I'm Alive
	
Genre: Rock
Info:
 ^ | Bend
 ~ | Vibrato
 / | Slide Onto
 . | Palm Mute
 x | Fret Mute

_________________________________________________________________________________________
Guitar 1:
(DADGBe)

	Intro:

e|------------------------------------------------------------------------|
B|------------10--10-10-11--11-11-11--11-11-11--11-11-11--11-11-11--11-11-|
G|-5--7--8--7-x---x--x--x---x--x--x---x--x--x---x--x--x---x--x--x---x--x--|
D|------------7---7--7--8---8--8--8---8--8--8---8--8--8---8--8--8---8--8--|
A|------------------------------------------------------------------------|
D|------------------------------------------------------------------------|
 |
e|--------------------------------------------------------------------------------|
B|------------10--10-10-11--11-11----11-10-------11----11----11-10-------11----11-|
G|-5--7--8--7-x---x--x--x---x--x--10-------10-12----12----10-------10-12----12----|
D|------------7---7--7--8---8--8--x-----------------------------------------------|
A|--------------------------------8-----------------------------------------------|
D|--------------------------------------------------------------------------------|

	Verse:

e|---------------3---5---6---5---5---------------3-----------------|
B|-----3-----------3---3---3---3-------3-------------6---4---3---3-|
G|-3-3---3-3-3-3-------------------3-3---3-3-3-3---3---3---3---3---|
D|-----------------------------------------------------------------|
A|-----------------------------------------------------------------|
D|-----------------------------------------------------------------|
 | . .     . . . .   .   .   .   . . .     . . . .   .   .   .   . |
 |
e|---------------3---5---6---5---5-3-3-6-6---------|
B|-----3-----------3---3---3---3-----------6-6-4-4-|
G|-3-3---3-3-3-3-----------------------------------|
D|-------------------------------------------------|
A|-------------------------------------------------|
D|-------------------------------------------------|
 | . .     . . . .   .   .   .   .                 |
 |
e|---------------3---5---6---5---5---------------3-----------------|
B|-----3-----------3---3---3---3-------3-------------6---4---3---3-|
G|-3-3---3-3-3-3-------------------3-3---3-3-3-3---3---3---3---3---|
D|-----------------------------------------------------------------|
A|-----------------------------------------------------------------|
D|-----------------------------------------------------------------|
 | . .     . . . .   .   .   .   . . .     . . . .   .   .   .   . |
 |
e|---------------3---5---6---5---5-3-3-6-6---------|
B|-----3-----------3---3---3---3-----------6-6-4-4-|
G|-3-3---3-3-3-3-----------------------------------|
D|-------------------------------------------------|
A|-------------------------------------------------|
D|-------------------------------------------------|
 | . .     . . . .   .   .   .   .                 |
 |
e|---------------------------------|
B|---------------------------------|
G|---------------------------------|
D|-5-5-5-5-3-3-3-3-8-8-8-8-7-7-7-7-|
A|---------------------------------|
D|---------------------------------|
 
	Chorus:

e|-6---6-6---6-6-6-6-6-6-6-6-6-6-6---------------------------------------------------|
B|-x---x-x---x-x-x-x-x-x-x-x-x-x-x-10---11-10-------11----11----11----11-10-10-10-10-|
G|-8---8-8---8-8-8-8-8-8-8-8-8-8-8------------10-12----12----12----12----------------|
D|-x---x-x---x-x-x-x-x-x-x-x-x-x-x---------------------------------------------------|
A|-6---6-6---6-6-6-6-6-6-6-6-6-6-6---------------------------------------------------|
D|-----------------------------------------------------------------------------------|
 |
e|-6---6-6---6-6-6-6-6-6-6-6-6-6-6---------------------------------------------------|
B|-x---x-x---x-x-x-x-x-x-x-x-x-x-x-10---11-10-------11-------10-11-10-------11-------|
G|-8---8-8---8-8-8-8-8-8-8-8-8-8-8------------10-12----12-10----------10-12----12-10-|
D|-x---x-x---x-x-x-x-x-x-x-x-x-x-x---------------------------------------------------|
A|-6---6-6---6-6-6-6-6-6-6-6-6-6-6---------------------------------------------------|
D|-----------------------------------------------------------------------------------|
 |
e|-6---6-6---6-6-6-6-6-6-6-6-6-6-6---------------------------------------------------|
B|-x---x-x---x-x-x-x-x-x-x-x-x-x-x-10---11-10-------11----11----11----11-10-10-10-10-|
G|-8---8-8---8-8-8-8-8-8-8-8-8-8-8------------10-12----12----12----12----------------|
D|-x---x-x---x-x-x-x-x-x-x-x-x-x-x---------------------------------------------------|
A|-6---6-6---6-6-6-6-6-6-6-6-6-6-6---------------------------------------------------|
D|-----------------------------------------------------------------------------------|
 |
e|-6---6-6---6-6-6-6-6-6-6-6-6-6-6-|
B|-x---x-x---x-x-x-x-x-x-x-x-x-x-x-|
G|-8---8-8---8-8-8-8-8-8-8-8-8-8-8-|
D|-x---x-x---x-x-x-x-x-x-x-x-x-x-x-|
A|-6---6-6---6-6-6-6-6-6-6-6-6-6-6-|
D|---------------------------------|

	Post-Chorus:

e|------------------------------------------------------------------------|
B|------------10--10-10-11--11-11-11--11-11-11--11-11-11--11-11-11--11-11-|
G|-5--7--8--7-x---x--x--x---x--x--x---x--x--x---x--x--x---x--x--x---x--x--|
D|------------7---7--7--8---8--8--8---8--8--8---8--8--8---8--8--8---8--8--|
A|------------------------------------------------------------------------|
D|------------------------------------------------------------------------|
 |
e|--------------------------------------------------------------------------------|
B|------------10--10-10-11--11-11----11-10-------11----11----11-10-------11----11-|
G|-5--7--8--7-x---x--x--x---x--x--10-------10-12----12----10-------10-12----12----|
D|------------7---7--7--8---8--8--x-----------------------------------------------|
A|--------------------------------8-----------------------------------------------|
D|--------------------------------------------------------------------------------|
 
	Verse:

e|-----------------------------------------------------------------|
B|-----------------------------------------------------------------|
G|-----------------------------------------------------------------|
D|-----------------------------------------------------------------|
A|-----------------------------------------------------------------|
D|-----------------------------------------------------------------|
 |
e|---------------------------------3-3-6-6---------|
B|-----------------------------------------6-6-4-4-|
G|-------------------------------------------------|
D|-------------------------------------------------|
A|-------------------------------------------------|
D|-------------------------------------------------|
 |
e|---------------3---5---6---5---5---------------3-----------------|
B|-----3-----------3---3---3---3-------3-------------6---4---3---3-|
G|-3-3---3-3-3-3-------------------3-3---3-3-3-3---3---3---3---3---|
D|-----------------------------------------------------------------|
A|-----------------------------------------------------------------|
D|-----------------------------------------------------------------|
 | . .     . . . .   .   .   .   . . .     . . . .   .   .   .   . |
 |
e|---------------3---5---6---5---5-3-3-6-6---------|
B|-----3-----------3---3---3---3-----------6-6-4-4-|
G|-3-3---3-3-3-3-----------------------------------|
D|-------------------------------------------------|
A|-------------------------------------------------|
D|-------------------------------------------------|
 | . .     . . . .   .   .   .   .                 |
 |
e|---------------------------------|
B|---------------------------------|
G|---------------------------------|
D|-5-5-5-5-3-3-3-3-8-8-8-8-7-7-7-7-|
A|---------------------------------|
D|---------------------------------|

	Chorus:

e|-6---6-6---6-6-6-6-6-6-6-6-6-6-6---------------------------------------------------|
B|-x---x-x---x-x-x-x-x-x-x-x-x-x-x-10---11-10-------11----11----11----11-10-10-10-10-|
G|-8---8-8---8-8-8-8-8-8-8-8-8-8-8------------10-12----12----12----12----------------|
D|-x---x-x---x-x-x-x-x-x-x-x-x-x-x---------------------------------------------------|
A|-6---6-6---6-6-6-6-6-6-6-6-6-6-6---------------------------------------------------|
D|-----------------------------------------------------------------------------------|
 |
e|-6---6-6---6-6-6-6-6-6-6-6-6-6-6---------------------------------------------------|
B|-x---x-x---x-x-x-x-x-x-x-x-x-x-x-10---11-10-------11-------10-11-10-------11-------|
G|-8---8-8---8-8-8-8-8-8-8-8-8-8-8------------10-12----12-10----------10-12----12-10-|
D|-x---x-x---x-x-x-x-x-x-x-x-x-x-x---------------------------------------------------|
A|-6---6-6---6-6-6-6-6-6-6-6-6-6-6---------------------------------------------------|
D|-----------------------------------------------------------------------------------|
 |
e|-6---6-6---6-6-6-6-6-6-6-6-6-6-6---------------------------------------------------|
B|-x---x-x---x-x-x-x-x-x-x-x-x-x-x-10---11-10-------11----11----11----11-10-10-10-10-|
G|-8---8-8---8-8-8-8-8-8-8-8-8-8-8------------10-12----12----12----12----------------|
D|-x---x-x---x-x-x-x-x-x-x-x-x-x-x---------------------------------------------------|
A|-6---6-6---6-6-6-6-6-6-6-6-6-6-6---------------------------------------------------|
D|-----------------------------------------------------------------------------------|
 |
e|-6---6-6---6-6-6-6-6-6-6-6-6-6-6-|
B|-x---x-x---x-x-x-x-x-x-x-x-x-x-x-|
G|-8---8-8---8-8-8-8-8-8-8-8-8-8-8-|
D|-x---x-x---x-x-x-x-x-x-x-x-x-x-x-|
A|-6---6-6---6-6-6-6-6-6-6-6-6-6-6-|
D|---------------------------------|

	Interlude:
	
e|---13----11----10----10----11----11----10----10----13----11----10----10----11-------11-11-11---|
B|11----11----11----11----11----11----11----11----11----11----11----11----11----11-11----------11|
G|-----------------------------------------------------------------------------------------------|
D|-----------------------------------------------------------------------------------------------|
A|-----------------------------------------------------------------------------------------------|
D|-----------------------------------------------------------------------------------------------|
 | .  .  .  .  .  .  .  .  .  .  .  .  .  .  .  .  .  .  .  .  .  .  .  .  .  .  .  .  .  .  .  .|
 |
e|---13----11----10----10----11----11----10----10----13----11----10----10----11-------11-11-11---|
B|11----11----11----11----11----11----11----11----11----11----11----11----11----11-11----------11|
G|-----------------------------------------------------------------------------------------------|
D|-----------------------------------------------------------------------------------------------|
A|-----------------------------------------------------------------------------------------------|
D|-----------------------------------------------------------------------------------------------|
 | .  .  .  .  .  .  .  .  .  .  .  .  .  .  .  .  .  .  .  .  .  .  .  .  .  .  .  .  .  .  .  .|
 |
e|---13----11----10----10----11----11----10----10----13----11----10----10----11-------11-11-11---|
B|11----11----11----11----11----11----11----11----11----11----11----11----11----11-11----------11|
G|-----------------------------------------------------------------------------------------------|
D|-----------------------------------------------------------------------------------------------|
A|-----------------------------------------------------------------------------------------------|
D|-----------------------------------------------------------------------------------------------|
 | .  .  .  .  .  .  .  .  .  .  .  .  .  .  .  .  .  .  .  .  .  .  .  .  .  .  .  .  .  .  .  .|
 |
e|---13----11----10----10----11----11----10----10----13----11----10----10----11-------10-10-10/--|
B|11----11----11----11----11----11----11----11----11----11----11----11----11----11-11------------|
G|-----------------------------------------------------------------------------------------------|
D|-----------------------------------------------------------------------------------------------|
A|-----------------------------------------------------------------------------------------------|
D|-----------------------------------------------------------------------------------------------|
 | .  .  .  .  .  .  .  .  .  .  .  .  .  .  .  .  .  .  .  .  .  .  .  .  .  .  .  .  .  .|
 |
 
	Bridge:

e|-----------------------------------------------------------------|
B|-----------------------------------------------------------------|
G|-3-3-3-3-3-3-3-3-3-3-3-3-3-3-3-3-5-5-5-5-3-3-3-3-5-5-5-5-5-5-5-5-|
D|-x-x-x-x-x-x-x-x-x-x-x-x-x-x-x-x-x-x-x-x-x-x-x-x-x-x-x-x-x-x-x-x-|
A|-1-1-1-1-1-1-1-1-1-1-1-1-1-1-1-1-3-3-3-3-1-1-1-1-3-3-3-3-3-3-3-3-|
D|-----------------------------------------------------------------|
 | . . . . . . . . . . . . . . . . . . . . . . . . . . . . . . . . |
 |
e|-----------------------------------------------------------------|
B|-----------------------------------------------------------------|
G|-7-7-7-7-7-7-7-7-101010105-5-5-5-7-7-7-7-7-7-7-7-101010105-5-5-5-|
D|-x-x-x-x-x-x-x-x-x-x-x-x-x-x-x-x-x-x-x-x-x-x-x-x-x-x-x-x-x-x-x-x-|
A|-5-5-5-5-5-5-5-5-8-8-8-8-3-3-3-3-5-5-5-5-5-5-5-5-8-8-8-8-3-3-3-3-|
D|-----------------------------------------------------------------|
 | . . . . . . . . . . . . . . . . . . . . . . . . . . . . . . . . |
 |
e|------------------------------------------------------------------|
B|------------------------------------------------------------------|
G|-3-3-3-3-3-3-3-3-3-3-3-3-3-3-3-3/5-5-5-5-5-5-5-5-5-5-5-5-5-5-5-5/-|
D|-x-x-x-x-x-x-x-x-x-x-x-x-x-x-x-x/x-x-x-x-x-x-x-x-x-x-x-x-x-x-x-x/-|
A|-1-1-1-1-1-1-1-1-1-1-1-1-1-1-1-1/3-3-3-3-3-3-3-3-3-3-3-3-3-3-3-3/-|
D|------------------------------------------------------------------|
 | . . . . . . . .   . .   . . .   . . . . . . . .   . .   . . .    |
 |
e|-----------------------------------------------------------------|
B|-----------------------------------------------------------------|
G|-7-7-7-7-7-7-7-7-101010105-5-5-5-7-7-7-7-7-7-7-7-101010105-5-5-5-|
D|-x-x-x-x-x-x-x-x-x-x-x-x-x-x-x-x-x-x-x-x-x-x-x-x-x-x-x-x-x-x-x-x-|
A|-5-5-5-5-5-5-5-5-8-8-8-8-3-3-3-3-5-5-5-5-5-5-5-5-8-8-8-8-3-3-3-3-|
D|-----------------------------------------------------------------|
 | . . . . . . . . . . . . . . . . . . . . . . . . . . . . . . . . |
 |
e|---------------3---5---6---6-6-|
B|-----3-----------3---3---3-4-4-|
G|-3-3---3-2/3-3-------------3-3-|
D|-------------------------------|
A|-------------------------------|
D|-------------------------------|

	Chorus:

e|-6---6-6---6-6-6-6-6-6-6-6-6-6-6---------------------------------------------------|
B|-x---x-x---x-x-x-x-x-x-x-x-x-x-x-10---11-10-------11----11----11----11-10-10-10-10-|
G|-8---8-8---8-8-8-8-8-8-8-8-8-8-8------------10-12----12----12----12----------------|
D|-x---x-x---x-x-x-x-x-x-x-x-x-x-x---------------------------------------------------|
A|-6---6-6---6-6-6-6-6-6-6-6-6-6-6---------------------------------------------------|
D|-----------------------------------------------------------------------------------|
 |
e|-6---6-6---6-6-6-6-6-6-6-6-6-6-6---------------------------------------------------|
B|-x---x-x---x-x-x-x-x-x-x-x-x-x-x-10---11-10-------11-------10-11-10-------11-------|
G|-8---8-8---8-8-8-8-8-8-8-8-8-8-8------------10-12----12-10----------10-12----12-10-|
D|-x---x-x---x-x-x-x-x-x-x-x-x-x-x---------------------------------------------------|
A|-6---6-6---6-6-6-6-6-6-6-6-6-6-6---------------------------------------------------|
D|-----------------------------------------------------------------------------------|
 |
e|-6---6-6---6-6-6-6-6-6-6-6-6-6-6---------------------------------------------------|
B|-x---x-x---x-x-x-x-x-x-x-x-x-x-x-10---11-10-------11----11----11----11-10-10-10-10-|
G|-8---8-8---8-8-8-8-8-8-8-8-8-8-8------------10-12----12----12----12----------------|
D|-x---x-x---x-x-x-x-x-x-x-x-x-x-x---------------------------------------------------|
A|-6---6-6---6-6-6-6-6-6-6-6-6-6-6---------------------------------------------------|
D|-----------------------------------------------------------------------------------|
 |
e|-6---6-6---6-6-6-6-6-6-6-6-6-6-6-|
B|-x---x-x---x-x-x-x-x-x-x-x-x-x-x-|
G|-8---8-8---8-8-8-8-8-8-8-8-8-8-8-|
D|-x---x-x---x-x-x-x-x-x-x-x-x-x-x-|
A|-6---6-6---6-6-6-6-6-6-6-6-6-6-6-|
D|---------------------------------|

	Outro:

e|------------------------------------------------------------------------|
B|------------10--10-10-11--11-11-11--11-11-11--11-11-11--11-11-11--11-11-|
G|-5--7--8--7-x---x--x--x---x--x--x---x--x--x---x--x--x---x--x--x---x--x--|
D|------------7---7--7--8---8--8--8---8--8--8---8--8--8---8--8--8---8--8--|
A|------------------------------------------------------------------------|
D|------------------------------------------------------------------------|
 |
e|------------------------------------------------------------------------|
B|------------10--10-10-11--11-11-11--11-11-11--11-11-11--11-11-11--11-11-|
G|-5--7--8--7-x---x--x--x---x--x--x---x--x--x---x--x--x---x--x--x---x--x--|
D|------------7---7--7--8---8--8--8---8--8--8---8--8--8---8--8--8---8--8--|
A|------------------------------------------------------------------------|
D|------------------------------------------------------------------------|
 |
e|----------------------|
B|-11-------------------|
G|-x--------------------|
D|-8--------------------|
A|----------------------|
D|----------------------|


_________________________________________________________________________________________
Guitar 2:
(DADGBe)

	Intro:

e|----------------------------------------------------------------|
B|----------------------------------------------------------------|
G|----------------3---3-3---3-3-3---------------------------------|
D|-1---1---1---1--3---3-3---3-3-3-3---3-3---3-3-3-5---5-5-3-3-3-3-|
A|-1---1---1---1--1---1-1---1-1-1-3---3-3---3-3-3-5---5-5-3-3-3-3-|
D|-1---1---1---1------------------3---3-3---3-3-3-5---5-5-3-3-3-3-|
 |
e|----------------------------------------------------------------|
B|----------------------------------------------------------------|
G|----------------3---3-3---3-3-3---------------------------------|
D|-1---1---1---1--3---3-3---3-3-3-3---------------3---------------|
A|-1---1---1---1--1---1-1---1-1-1-3---------------3---------------|
D|-1---1---1---1------------------3---------------3---------------|

	Verse:
	
e|-----------------------------------------------------------------|
B|---------------------------4-3-4---------------------------4-3-4-|
G|-------3-------------------------------3-------------------------|
D|-5-3-5---7-5-3-5-3-5-3-5-3-------5-3-5---7-5-3-5-3-5-3-5-3-------|
A|-----------------------------------------------------------------|
D|-----------------------------------------------------------------|
 | . . . . . . . . . . . . . . . . . . . . . . . . . . . . . . . . |
 |
e|-----------------------------------------------------------|
B|---------------------------4-3-4---------------------------|
G|-------3---------------------------------------------------|
D|-5-3-5---7-5-3-5-3-5-3-5-3-------5-5-8-8---------3-5-3-5-3-|
A|-----------------------------------------8-8-6-6-----------|
D|-----------------------------------------------------------|
 | . . . . . . . . . . . . . . . . . . . . . . . . . . . . . |
	
e|-----------------------------------------------------------------|
B|---------------------------4-3-4---------------------------4-3-4-|
G|-------3-------------------------------3-------------------------|
D|-5-3-5---7-5-3-5-3-5-3-5-3-------5-3-5---7-5-3-5-3-5-3-5-3-------|
A|-----------------------------------------------------------------|
D|-----------------------------------------------------------------|
 | . . . . . . . . . . . . . . . . . . . . . . . . . . . . . . . . |
 |
e|-------------------------------------------------|
B|---------------------------4-3-4-----------------|
G|-------3-----------------------------------------|
D|-5-3-5---7-5-3-5-3-5-3-5-3-------5-5-8-8---------|
A|-----------------------------------------8-8-6-6-|
D|-------------------------------------------------|
 | . . . . . . . . . . . . . . . .                 |
 |
e|---------------------------------|
B|---------------------------------|
G|---------------------------------|
D|-5-5-5-5-3-3-3-3-8-8-8-8-7-7-7-7-|
A|---------------------------------|
D|---------------------------------|

	Chorus:

e|-----------------------------------------------------------------|
B|-----------------------------------------------------------------|
G|-----------------------------------------------------------------|
D|-1---1-1---1-1-1-3---3-3-3-3-3-3-3/--5-5---5---5---5---5---5-5-5-|
A|-1---1-1---1-1-1-3---3-3-3-3-3-3-3/--5-5---5---5---5---5---5-5-5-|
D|-1---1-1---1-1-1-3---3-3-3-3-3-3-3/--5-5---5---5---5---5---5-5-5-|
 |
e|-----------------------------------------------------------------|
B|-----------------------------------------------------------------|
G|-----------------------------------------------------------------|
D|-1---1-1---1-1-1-3---3-3-3-3-3-3-5//-----x---x-5//---------x---x-|
A|-1---1-1---1-1-1-3---3-3-3-3-3-3-5//-----x---x-5//---------x---x-|
D|-1---1-1---1-1-1-3---3-3-3-3-3-3-5//-----x---x-5//---------x---x-|
 |
e|-----------------------------------------------------------------|
B|-----------------------------------------------------------------|
G|-----------------------------------------------------------------|
D|-1---1-1---1-1-1-3---3-3-3-3-3-3-3/--5-5---5---5---5---5---5-5-5-|
A|-1---1-1---1-1-1-3---3-3-3-3-3-3-3/--5-5---5---5---5---5---5-5-5-|
D|-1---1-1---1-1-1-3---3-3-3-3-3-3-3/--5-5---5---5---5---5---5-5-5-|
 |
e|---------------------------------|
B|---------------------------------|
G|---------------------------------|
D|-1---1-1---1-1-1-3---3-3-3-3-3-3-|
A|-1---1-1---1-1-1-3---3-3-3-3-3-3-|
D|-1---1-1---1-1-1-3---3-3-3-3-3-3-|

	Post-Chorus:

e|----------------------------------------------------------------|
B|----------------------------------------------------------------|
G|----------------3---3-3---3-3-3---------------------------------|
D|-1---1---1---1--3---3-3---3-3-3-3---3-3---3-3-3-5---5-5-3-3-3-3-|
A|-1---1---1---1--1---1-1---1-1-1-3---3-3---3-3-3-5---5-5-3-3-3-3-|
D|-1---1---1---1------------------3---3-3---3-3-3-5---5-5-3-3-3-3-|
 |
e|----------------------------------------------------------------|
B|----------------------------------------------------------------|
G|----------------3---3-3---3-3-3---------------------------------|
D|-1---1---1---1--3---3-3---3-3-3-3---3-3-3-------3---3-3-3-------|
A|-1---1---1---1--1---1-1---1-1-1-3---3-3-3-------3---3-3-3-------|
D|-1---1---1---1------------------3---3-3-3-------3---3-3-3-------|

	Verse:
	
e|-----------------------------------------------------------------|
B|---------------------------4-3-4---------------------------4-3-4-|
G|-------3-------------------------------3-------------------------|
D|-5-3-5---7-5-3-5-3-5-3-5-3-------5-3-5---7-5-3-5-3-5-3-5-3-------|
A|-----------------------------------------------------------------|
D|-----------------------------------------------------------------|
 | . . . . . . . . . . . . . . . . . . . . . . . . . . . . . . . . |
 |
e|-----------------------------------------------------------|
B|---------------------------4-3-4---------------------------|
G|-------3---------------------------------------------------|
D|-5-3-5---7-5-3-5-3-5-3-5-3-------5-5-8-8---------3-5-3-5-3-|
A|-----------------------------------------8-8-6-6-----------|
D|-----------------------------------------------------------|
 | . . . . . . . . . . . . . . . . . . . . . . . . . . . . . |
	
e|-----------------------------------------------------------------|
B|---------------------------4-3-4---------------------------4-3-4-|
G|-------3-------------------------------3-------------------------|
D|-5-3-5---7-5-3-5-3-5-3-5-3-------5-3-5---7-5-3-5-3-5-3-5-3-------|
A|-----------------------------------------------------------------|
D|-----------------------------------------------------------------|
 | . . . . . . . . . . . . . . . . . . . . . . . . . . . . . . . . |
 |
e|-------------------------------------------------|
B|---------------------------4-3-4-----------------|
G|-------3-----------------------------------------|
D|-5-3-5---7-5-3-5-3-5-3-5-3-------5-5-8-8---------|
A|-----------------------------------------8-8-6-6-|
D|-------------------------------------------------|
 | . . . . . . . . . . . . . . . .                 |
 |
e|---------------------------------|
B|---------------------------------|
G|---------------------------------|
D|-5-5-5-5-3-3-3-3-8-8-8-8-7-7-7-7-|
A|---------------------------------|
D|---------------------------------|

	Chorus:

e|-----------------------------------------------------------------|
B|-----------------------------------------------------------------|
G|-----------------------------------------------------------------|
D|-1---1-1---1-1-1-3---3-3-3-3-3-3-3/--5-5---5---5---5---5---5-5-5-|
A|-1---1-1---1-1-1-3---3-3-3-3-3-3-3/--5-5---5---5---5---5---5-5-5-|
D|-1---1-1---1-1-1-3---3-3-3-3-3-3-3/--5-5---5---5---5---5---5-5-5-|
 |
e|-----------------------------------------------------------------|
B|-----------------------------------------------------------------|
G|-----------------------------------------------------------------|
D|-1---1-1---1-1-1-3---3-3-3-3-3-3-5//-----x---x-5//---------x---x-|
A|-1---1-1---1-1-1-3---3-3-3-3-3-3-5//-----x---x-5//---------x---x-|
D|-1---1-1---1-1-1-3---3-3-3-3-3-3-5//-----x---x-5//---------x---x-|
 |
e|-----------------------------------------------------------------|
B|-----------------------------------------------------------------|
G|-----------------------------------------------------------------|
D|-1---1-1---1-1-1-3---3-3-3-3-3-3-3/--5-5---5---5---5---5---5-5-5-|
A|-1---1-1---1-1-1-3---3-3-3-3-3-3-3/--5-5---5---5---5---5---5-5-5-|
D|-1---1-1---1-1-1-3---3-3-3-3-3-3-3/--5-5---5---5---5---5---5-5-5-|
 |
e|---------------------------------|
B|---------------------------------|
G|---------------------------------|
D|-1---1-1---1-1-1-3---3-3-3-3-3-3-|
A|-1---1-1---1-1-1-3---3-3-3-3-3-3-|
D|-1---1-1---1-1-1-3---3-3-3-3-3-3-|

	Interlude:
	
e|-----------------------------------------------------------------|
B|-----------------------------------------------------------------|
G|-----------------------------------------------------------------|
D|-1---1-1-1-----x-1---1-1-1-----x-1---1-1-1-----x-1---1-1-3-3-3-3-|
A|-1---1-1-1-----x-1---1-1-1-----x-1---1-1-1-----x-1---1-1-3-3-3-3-|
D|-1---1-1-1-----x-1---1-1-1-----x-1---1-1-1-----x-1---1-1-3-3-3-3-|
 |
e|-----------------------------------------------------------------|
B|-----------------------------------------------------------------|
G|---------------------------------------------------------3-3-3-3-|
D|-5---5-5-5-----x-5---5-5-5-----x-5---5-5-5-----x-5---5-5-3-3-3-3-|
A|-5---5-5-5-----x-5---5-5-5-----x-5---5-5-5-----x-5---5-5-1-1-1-1-|
D|-5---5-5-5-----x-5---5-5-5-----x-5---5-5-5-----x-5---5-5---------|
 |
e|-----------------------------------------------------------------|
B|-----------------------------------------------------------------|
G|-----------------------------------------------------------------|
D|-1---1-1-1-----x-1---1-1-1-----x-1---1-1-1-----x-1---1-1-3-3-3-3-|
A|-1---1-1-1-----x-1---1-1-1-----x-1---1-1-1-----x-1---1-1-3-3-3-3-|
D|-1---1-1-1-----x-1---1-1-1-----x-1---1-1-1-----x-1---1-1-3-3-3-3-|
 |
e|-----------------------------------------------------------------|
B|-----------------------------------------------------------------|
G|---------------------------------------------------------3-3-3-3-|
D|-5---5-5-5-----x-5---5-5-5-----x-5---5-5-5-----x-5---5-5-3-3-3-3-|
A|-5---5-5-5-----x-5---5-5-5-----x-5---5-5-5-----x-5---5-5-1-1-1-1-|
D|-5---5-5-5-----x-5---5-5-5-----x-5---5-5-5-----x-5---5-5---------|

	
	Bridge:

e|-----------------------------------------------------------------|
B|-----------------------------------------------------------------|
G|-----------------------------------------------------------------|
D|-1-1-1-1-1-1-1-1-1-1-1-1-1-1-1-1-3-3-3-3-3-3-3-3-3-3-3-3-3-3-3-3-|
A|-1-1-1-1-1-1-1-1-1-1-1-1-1-1-1-1-3-3-3-3-3-3-3-3-3-3-3-3-3-3-3-3-|
D|-1-1-1-1-1-1-1-1-1-1-1-1-1-1-1-1-3-3-3-3-3-3-3-3-3-3-3-3-3-3-3-3-|
 | . . . . . . . . . . . . . . . . . . . . . . . . . . . . . . . . |
 |
e|-----------------------------------------------------------------|
B|-----------------------------------------------------------------|
G|---------------------------------3-3-3-3-3-3-3-3-3-3-3-3-3-3-3-3-|
D|-5-5-5-5-5-5-5-5-5-5-5-5-5-5-5-5-3-3-3-3-3-3-3-3-3-3-3-3-3-3-3-3-|
A|-5-5-5-5-5-5-5-5-5-5-5-5-5-5-5-5-1-1-1-1-1-1-1-1-1-1-1-1-1-1-1-1-|
D|-5-5-5-5-5-5-5-5-5-5-5-5-5-5-5-5---------------------------------|
 | . . . . . . . . . . . . . . . . . . . . . . . . . . . . . . . . |
 |
e|-----------------------------------------------------------------|
B|-----------------------------------------------------------------|
G|-----------------------------------------------------------------|
D|-1-1-1-1-1-1-1-1-1-1-1-1-1-1-1-1-3-3-3-3-3-3-3-3-3-3-3-3-3-3-3-3-|
A|-1-1-1-1-1-1-1-1-1-1-1-1-1-1-1-1-3-3-3-3-3-3-3-3-3-3-3-3-3-3-3-3-|
D|-1-1-1-1-1-1-1-1-1-1-1-1-1-1-1-1-3-3-3-3-3-3-3-3-3-3-3-3-3-3-3-3-|
 | . . . . . . . . . . . . . . . . . . . . . . . . . . . . . . . . |
 |
e|-----------------------------------------------------------------|
B|-----------------------------------------------------------------|
G|---------------------------------3-3-3-3-3-3-3-3-3-3-3-3-3-3-3-3-|
D|-5-5-5-5-5-5-5-5-5-5-5-5-5-5-5-5-3-3-3-3-3-3-3-3-3-3-3-3-3-3-3-3-|
A|-5-5-5-5-5-5-5-5-5-5-5-5-5-5-5-5-1-1-1-1-1-1-1-1-1-1-1-1-1-1-1-1-|
D|-5-5-5-5-5-5-5-5-5-5-5-5-5-5-5-5---------------------------------|
 | . . . . . . . . . . . . . . . . . . . . . . . . . . . . . . . . |
 |
e|-------------------------------|
B|-------------------------------|
G|-------------------------------|
D|---------------------------3-3-|
A|---------------------------3-3-|
D|---------------------------3-3-|

	Chorus:

e|-----------------------------------------------------------------|
B|-----------------------------------------------------------------|
G|-----------------------------------------------------------------|
D|-1---1-1---1-1-1-3---3-3-3-3-3-3-3/--5-5---5---5---5---5---5-5-5-|
A|-1---1-1---1-1-1-3---3-3-3-3-3-3-3/--5-5---5---5---5---5---5-5-5-|
D|-1---1-1---1-1-1-3---3-3-3-3-3-3-3/--5-5---5---5---5---5---5-5-5-|
 |
e|-----------------------------------------------------------------|
B|-----------------------------------------------------------------|
G|-----------------------------------------------------------------|
D|-1---1-1---1-1-1-3---3-3-3-3-3-3-5//-----x---x-5//---------x---x-|
A|-1---1-1---1-1-1-3---3-3-3-3-3-3-5//-----x---x-5//---------x---x-|
D|-1---1-1---1-1-1-3---3-3-3-3-3-3-5//-----x---x-5//---------x---x-|
 |
e|-----------------------------------------------------------------|
B|-----------------------------------------------------------------|
G|-----------------------------------------------------------------|
D|-1---1-1---1-1-1-3---3-3-3-3-3-3-3/--5-5---5---5---5---5---5-5-5-|
A|-1---1-1---1-1-1-3---3-3-3-3-3-3-3/--5-5---5---5---5---5---5-5-5-|
D|-1---1-1---1-1-1-3---3-3-3-3-3-3-3/--5-5---5---5---5---5---5-5-5-|
 |
e|---------------------------------|
B|---------------------------------|
G|---------------------------------|
D|-1---1-1---1-1-1-3---3-3-3-3-3-3-|
A|-1---1-1---1-1-1-3---3-3-3-3-3-3-|
D|-1---1-1---1-1-1-3---3-3-3-3-3-3-|

	Outro:
	
e|----------------------------------------------------------------|
B|----------------------------------------------------------------|
G|----------------3---3-3---3-3-3---------------------------------|
D|-1---1---1---1--3---3-3---3-3-3-3---3-3---3-3-3-5---5-5-3-3-3-3-|
A|-1---1---1---1--1---1-1---1-1-1-3---3-3---3-3-3-5---5-5-3-3-3-3-|
D|-1---1---1---1------------------3---3-3---3-3-3-5---5-5-3-3-3-3-|
 |
e|----------------------------------------------------------------|
B|----------------------------------------------------------------|
G|----------------3---3-3---3-3-3---------------------------------|
D|-1---1---1---1--3---3-3---3-3-3-3---------------3---------------|
A|-1---1---1---1--1---1-1---1-1-1-3---------------3---------------|
D|-1---1---1---1------------------3---------------3---------------|
 |
e|----------------------|
B|----------------------|
G|----------------------|
D|-5--------------------|
A|-5--------------------|
D|-5--------------------|





Comments


Popular Ivoryline tabs & chords
All You Ever Hear Bass Tabs
Days End Bass Tabs
Instincts Bass Tabs
Vessels Bass Tabs
Made From Dust Chords
All You Ever Hear Tabs
Hearts And Minds Tabs
The Healing Tabs
The Last Words 2 Tabs
Vessels Tabs


Song lyrics



↑ Back to top | Tablatures and chords are parodies/interpretations of the original songs. You may use it for private study, scholarship, research or language learning purposes only
© 2014 AZChords.com Contact us | Privacy policy | DMCA | Add/correct tabs | Request tabs | Top 50 tabs