>
 >
Parade

Parade Guitar Tabs

Ivoryline - Parade chords, tabs, tablatures, lyrics

Guitar lessons | Add/correct | Request | Top 50 tabs Artists:  A B C D E F G H I J K L M N O P Q R S T U V W X Y Z 0-9

Parade Guitar Tabs – Ivoryline

CD, Sheet music, Poster

Do you like Parade? Share with your friends now
Tabs
	Parade
	
Genre: Rock
Info:
 ^ | Bend
 ~ | Vibrato
 / | Slide Onto
 . | Palm Mute
 x | Fret Mute
 N | Natural Harmonic
 * | Pinch Harmonic

_________________________________________________________________________________________
Guitar 1:
(DbAbDbGbBbeb)

	Intro:

eb|-------------------------------------------------------------------------|
Bb|-10-10-------------10-10-------------10-10-------------10-10-------------|
Gb|-------7-7-6-6-7-7-------7-7-6-6-7-7-------7-7-6-6-7-7-------7-7-6-6-7-7-|
Db|-------------------------------------------------------------------------|
Ab|-------------------------------------------------------------------------|
Db|-------------------------------------------------------------------------|
  |
eb|-------------------------------------------------------------------------|
Bb|-10-10-------------10-10-------------10-10-------------10-10-------------|
Gb|-------7-7-6-6-7-7-------7-7-6-6-7-7-------7-7-6-6-7-7-------7-7-6-6-7-7-|
Db|-------------------------------------------------------------------------|
Ab|-------------------------------------------------------------------------|
Db|-------------------------------------------------------------------------|
  | .  .  . . . . . . .  .  . . . . . . .  .  . . . . . . .  .  . . . . . . |
  
	Chorus:
	
eb|-------------------------------------------------------------------------|
Bb|-10-10-------------10-10-------------10-10-------------10-10-------------|
Gb|-------7-7-6-6-7-7-------7-7-6-6-7-7-------7-7-6-6-7-7-------7-7---------|
Db|-----------------------------------------------------------------4^------|
Ab|---------------------------------------------------------------------5/--|
Db|-------------------------------------------------------------------------|
  |
eb|------------------------------------------------------------------------|
Bb|---------------------------------7---7---7-7-7-10---10-10---10-10-10-10-|
Gb|-4---4---4-4-4-6---6-6-6-6^------x---x---x-x-x-x----x--x----x--x--x--x--|
Db|-x---x---x-x-x-x---x-x-x-----7-4-4---4---4-4-4-7----7--7----7--7--7--7--|
Ab|-2---2---2-2-2-4---4-4-4------------------------------------------------|
Db|------------------------------------------------------------------------|

	Verse:
	
eb|-----------------------------------------------------------------|
Bb|-------------------------------------7-7-5-5---------7-7-5-5-----|
Gb|-----7-7-6-6---------7-7-6-6---------------------------------7/--|
Db|-4-4---------7-7---7---------7-7-4-4---------7-7---7-------------|
Ab|-----------------------------------------------------------------|
Db|-----------------------------------------------------------------|
  | . . . . . . . .   . . . . . . . . . . . . . . .   . . . . .     |
  |
eb|-----------------------------------------------------------------|
Bb|-------------------------------------7-7-5-5---------7-7-5-5-----|
Gb|-----7-7-6-6---------7-7-6-6---------------------------------7/--|
Db|-4-4---------7-7---7---------7-7-4-4---------7-7---7-------------|
Ab|-----------------------------------------------------------------|
Db|-----------------------------------------------------------------|
  | . . . . . . . .   . . . . . . . . . . . . . . .   . . . . .     |
  |
eb|-----------------------------------------------------------------|
Bb|-------------------------------------7-7-5-5---------7-7-5-5-----|
Gb|-----7-7-6-6---------7-7-6-6---------------------------------7/--|
Db|-4-4---------7-7---7---------7-7-4-4---------7-7---7-------------|
Ab|-----------------------------------------------------------------|
Db|-----------------------------------------------------------------|
  | . . . . . . . .   . . . . . . . . . . . . . . .   . . . . .     |
  |
eb|-----------------------------------------------------------------|
Bb|-------------------------------------7-7-5-5---------7-7-5-5-----|
Gb|-----7-7-6-6---------7-7-6-6---------------------------------7/--|
Db|-4-4---------7-7---7---------7-7-4-4---------7-7---7-------------|
Ab|-----------------------------------------------------------------|
Db|-----------------------------------------------------------------|
  | . . . . . . . .   . . . . . . . . . . . . . . .   . . . . .     |

	Bridge:
	
eb|-----------------------------------------------------------------|
Bb|-----------------------------------------------------------------|
Gb|-----7-7-6-6---------7-7-6-6---------7-7-6-6---------7-7-6-6-7/--|
Db|-4-4---------7-7~--7---------7-7-4-4---------7-7~--7-------------|
Ab|-----------------------------------------------------------------|
Db|-----------------------------------------------------------------|
  |
eb|-----------------------------------------------------------------|
Bb|-------------------------------------------------5-5-------------|
Gb|-----7-7-6-6---------7-7-6-6---------7-7-6-6---------7-7-676-----|
Db|-4-4---------7-7~--7---------7-7-4-4---------7-7------------7~---|
Ab|-----------------------------------------------------------------|
Db|-----------------------------------------------------------------|
	
	Chorus:
	
eb|-------------------------------------------------------------------------|
Bb|-10-10-------------10-10-------------10-10-------------10-10-------------|
Gb|-------7-7-6-6-7-7-------7-7-6-6-7-7-------7-7-6-6-7-7-------7-7---------|
Db|-----------------------------------------------------------------4^------|
Ab|---------------------------------------------------------------------5/--|
Db|-------------------------------------------------------------------------|
  |
eb|------------------------------------------------------------------------|
Bb|---------------------------------7-8-7-8-7-8-7-10---10----10---10----10-|
Gb|-4---4---4-4-4-6---6-6-6-6^----------------------------11---------11----|
Db|-x---x---x-x-x-x---x-x-x-----7-4----------------------------------------|
Ab|-2---2---2-2-2-4---4-4-4------------------------------------------------|
Db|------------------------------------------------------------------------|
  |
eb|-------------------------------------------------------------------------|
Bb|-10-10-------------10-10-------------10-10-------------10-10-------------|
Gb|-------7-7-6-6-7-7-------7-7-6-6-7-7-------7-7-6-6-7-7-------7-7---------|
Db|-----------------------------------------------------------------4^------|
Ab|---------------------------------------------------------------------5/--|
Db|-------------------------------------------------------------------------|
  |
eb|------------------------------------------------------------------------|
Bb|---------------------------------7-8-7-8-7-8-7-10---10-10---10-10-10-10-|
Gb|-4---4---4-4-4-6---6-6-6-6^--------------------x----x--x----x--x--x--x--|
Db|-x---x---x-x-x-x---x-x-x-----7-4---------------7----7--7----7--7--7--7--|
Ab|-2---2---2-2-2-4---4-4-4------------------------------------------------|
Db|------------------------------------------------------------------------|

	Verse:
	
eb|-----------------------------------------------------------------|
Bb|-------------------------------------7-7-5-5---------7-7-5-5-----|
Gb|-----7-7-6-6---------7-7-6-6---------------------------------7/--|
Db|-4-4---------7-7---7---------7-7-4-4---------7-7---7-------------|
Ab|-----------------------------------------------------------------|
Db|-----------------------------------------------------------------|
  | . . . . . . . .   . . . . . . . . . . . . . . .   . . . . .     |
  |
eb|-----------------------------------------------------------------|
Bb|-------------------------------------7-7-5-5---------7-7-5-5-----|
Gb|-----7-7-6-6---------7-7-6-6---------------------------------7/--|
Db|-4-4---------7-7---7---------7-7-4-4---------7-7---7-------------|
Ab|-----------------------------------------------------------------|
Db|-----------------------------------------------------------------|
  | . . . . . . . .   . . . . . . . . . . . . . . .   . . . . .     |
  |
eb|-----------------------------------------------------------------|
Bb|-------------------------------------7-7-5-5---------7-7-5-5-----|
Gb|-----7-7-6-6---------7-7-6-6---------------------------------7/--|
Db|-4-4---------7-7---7---------7-7-4-4---------7-7---7-------------|
Ab|-----------------------------------------------------------------|
Db|-----------------------------------------------------------------|
  | . . . . . . . .   . . . . . . . . . . . . . . .   . . . . .     |
  |
eb|-----------------------------------------------------------------|
Bb|-------------------------------------7-7-5-5---------7-7-5-5-----|
Gb|-----7-7-6-6---------7-7-6-6---------------------------------7/--|
Db|-4-4---------7-7---7---------7-7-4-4---------7-7---7-------------|
Ab|-----------------------------------------------------------------|
Db|-----------------------------------------------------------------|
  | . . . . . . . .   . . . . . . . . . . . . . . .   . . . . .     |

	Bridge:
	
eb|-----------------------------------------------------------------|
Bb|-----------------------------------------------------------------|
Gb|-----7-7-6-6---------7-7-6-6---------7-7-6-6---------7-7-6-6-7/--|
Db|-4-4---------7-7~--7---------7-7-4-4---------7-7~--7-------------|
Ab|-----------------------------------------------------------------|
Db|-----------------------------------------------------------------|
  |
eb|-----------------------------------------------------------------|
Bb|-------------------------------------------------5-5---------7---|
Gb|-----7-7-6-6---------7-7-6-6---------7-7-6-6---------7-7-7-0-----|
Db|-4-4---------7-7~--7---------7-7-4-4---------7-7-----------------|
Ab|-----------------------------------------------------------------|
Db|-----------------------------------------------------------------|
  |                                                         N   N   |

	Chorus:

eb|-----------------------------------------------------------|
Bb|-10-10-------------10-10-----------------7^------7^--------|
Gb|-------7-7-6-6-7-7-------7-7-6-6-7-7-7-7-----7-7-----6-6-6-|
Db|-----------------------------------------------------------|
Ab|-----------------------------------------------------------|
Db|-----------------------------------------------------------|
  |
eb|------------------------------------------------------------------------|
Bb|---------------------------------7-8-7-8-7-8-7-10---10----10---10----10-|
Gb|-4---4---4-4-4-6---6-6-6-6^----------------------------11---------11----|
Db|-x---x---x-x-x-x---x-x-x-----7-4----------------------------------------|
Ab|-2---2---2-2-2-4---4-4-4------------------------------------------------|
Db|------------------------------------------------------------------------|
  |
eb|-----------------------------------------------------------|
Bb|-10-10-------------10-10-----------------7^----------------|
Gb|-------7-7-6-6-7-7-------7-7-6-6-7-7-7-7---------------7/--|
Db|-----------------------------------------------------------|
Ab|-----------------------------------------------------------|
Db|-----------------------------------------------------------|
  |
eb|---------------------------------------------------------|
Bb|---------------------------------------------------------|
Gb|-4---4---4-4-4-6---6-6-6-6-6-6-6-6-6-6-6-6-6-6-6-6-6-6-6-|
Db|-x---x---x-x-x-x---x-x-x-x-x-x-x-x-x-x-x-x-x-x-x-x-x-x-x-|
Ab|-2---2---2-2-2-4---4-4-4-4-4-4-4-4-4-4-4-4-4-4-4-4-4-4-4-|
Db|---------------------------------------------------------|

	Interlude:
	
eb|----------------------------------------10-9----12-9----10-9------|
Bb|---------8-7---10-7---8-7--------------------10------10------10---|
Gb|-4-4-4-------7------7-----7-------------------------------------9-|
Db|-4-4-4----------------------7~--5-5-5-----------------------------|
Ab|-2-2-2--------------------------5-5-5-----------------------------|
Db|--------------------------------5-5-5-----------------------------|
  |                                                                * |
  |
eb|------------------------------------------------|
Bb|---------8-7---10-7---8-7-----------------------|
Gb|-4-4-4-------7------7-----7---------6---7---9~--|
Db|-4-4-4----------------------7~--7-9-------------|
Ab|-2-2-2------------------------------------------|
Db|------------------------------------------------|
  |                                            *   |
  |
eb|-----------------------------------------------------------------|
Bb|-8-7---8-7-----------------------8-7---8-7-----------------------|
Gb|-----7-----7-------------7-----------7-----7-------------7-------|
Db|---------------7---7-9-7---7-9-7---------------7---7-9-7---7-9-7-|
Ab|-----------------------------------------------------------------|
Db|-----------------------------------------------------------------|
  |
eb|-------------------------------------------------|
Bb|-8-7---8-7---------------------------------------|
Gb|-----7-----7-------------7-----------7-------7---|
Db|---------------7---7-9-7---7-9-7-9-7---7-9-7---7-|
Ab|-------------------------------------------------|
Db|-------------------------------------------------|

	Chorus:
	
eb|-------------------------------------------------|
Bb|-7~----------------------------10-10-------------|
Gb|-------------------------------------7-7-6-6-7-7-|
Db|-------------------------------------------------|
Ab|-------------------------------------------------|
Db|-------------------------------------------------|
  |
eb|------------------------------------------------------------------------|
Bb|---------------------------------7-8-7-8-7-8-7-10---10----10---10----10-|
Gb|-4---4---4-4-4-6---6-6-6-6^----------------------------11---------11----|
Db|-x---x---x-x-x-x---x-x-x-----7-4----------------------------------------|
Ab|-2---2---2-2-2-4---4-4-4------------------------------------------------|
Db|------------------------------------------------------------------------|
  |
eb|-------------------------------------------------------------------------|
Bb|-10-10-------------10-10-------------10-10-------------10-10-------------|
Gb|-------7-7-6-6-7-7-------7-7-6-6-7-7-------7-7-6-6-7-7-------7-7---------|
Db|-----------------------------------------------------------------4^------|
Ab|---------------------------------------------------------------------5/--|
Db|-------------------------------------------------------------------------|
  |
eb|------------------------------------------------------------------------|
Bb|---------------------------------7-8-7-8-7-8-7-10---10-10---10-10-10-10-|
Gb|-4---4---4-4-4-6---6-6-6-6^--------------------x----x--x----x--x--x--x--|
Db|-x---x---x-x-x-x---x-x-x-----7-4---------------7----7--7----7--7--7--7--|
Ab|-2---2---2-2-2-4---4-4-4------------------------------------------------|
Db|------------------------------------------------------------------------|
  |
eb|-------------------------------------------------------------------------|
Bb|-7-7-7-7-7-7-7-7-7-7-7-7-7-7-7-7-8-8-8-8-8-8-8-8-10-10-10-10-10-10-10-10-|
Gb|-x-x-x-x-x-x-x-x-x-x-x-x-x-x-x-x-x-x-x-x-x-x-x-x-x--x--x--x--x--x--x--x--|
Db|-4-4-4-4-4-4-4-4-4-4-4-4-4-4-4-4-5-5-5-5-5-5-5-5-7--7--7--7--7--7--7--7--|
Ab|-------------------------------------------------------------------------|
Db|-------------------------------------------------------------------------|
  | . . . . . . . . . . . . . . . . . . . . . . . . .  .  .  .  .  .  .  .  |
                          Partial Palm Mutes

	Outro:

eb|------------------------------------------------------------------------------|
Bb|---------------------------------10-10-10---10---10-10-10-10-10----10---10-10-|
Gb|-7-7-7---7---7-7-7-7-7---7---7-7-x--x--x----x----x--x--x--x--x-----x----x--x--|
Db|-x-x-x---x---x-x-x-x-x---x---x-x-7--7--7----7----7--7--7--7--7-----7----7--7--|
Ab|-5-5-5---5---5-5-5-5-5---5---5-5----------------------------------------------|
Db|------------------------------------------------------------------------------|
  |
eb|------------------------------------------------------------------|
Bb|-8-8-8---8---8-8-8-8-8---8---8-8-8---8---8---8---7---7---7-8-10---|
Gb|-x-x-x---x---x-x-x-x-x---x---x-x-x---x---x---x---x---x---x-x-x----|
Db|-5-5-5---5---5-5-5-5-5---5---5-5-5---5---5---5---4---4---4-5-7----|
Ab|------------------------------------------------------------------|
Db|------------------------------------------------------------------|
  |
eb|---------------9-9-10-10-9-9-------------------------9-9-10-10-9-9-----------|
Bb|---------10-10---------------10-10-------------10-10---------------10-10-----|
Gb|-6-6-7-7---------------------------7-7-6-6-7-7---------------------------7-7-|
Db|-----------------------------------------------------------------------------|
Ab|-----------------------------------------------------------------------------|
Db|-----------------------------------------------------------------------------|
  |
eb|---------------9-9-10-10-9-9-------------------------9-9-10-10-9-9-----------|
Bb|---------10-10---------------10-10-------------10-10---------------10-10-----|
Gb|-6-6-7-7---------------------------7-7-6-6-7-7---------------------------7-7-|
Db|-----------------------------------------------------------------------------|
Ab|-----------------------------------------------------------------------------|
Db|-----------------------------------------------------------------------------|
  |
eb|---------------------------------------|
Bb|---------------------------------------|
Gb|-6-------------------------------------|
Db|---------------------------------------|
Ab|---------------------------------------|
Db|---------------------------------------|


_________________________________________________________________________________________
Guitar 2:
(DbAbDbGbBbeb)

	Intro:

eb|-------------------------------------------------------------------------|
Bb|-------------------------------------------------------------------------|
Gb|-------------------------------------------------------------------------|
Db|-0-----------------------------------------------------------------------|
Ab|-0-----------------------------------------------------------------------|
Db|-0-----------------------------------------------------------------------|
  |
eb|-------------------------------------------------------------------------|
Bb|-10-10-------------10-10-------------10-10-------------10-10-------------|
Gb|-------7-7-6-6-7-7-------7-7-6-6-7-7-------7-7-6-6-7-7-------7-7-6-6-7-7-|
Db|-------------------------------------------------------------------------|
Ab|-------------------------------------------------------------------------|
Db|-------------------------------------------------------------------------|
  | .  .  . . . . . . .  .  . . . . . . .  .  . . . . . . .  .  . . . . . . |
  
	Chorus:

eb|-----------------------------------------------------------------|
Bb|-----------------------------------------------------------------|
Gb|-4---4---4-4---4---4-4---4-4-4-4---------------------------------|
Db|-4---4---4-4---4---4-4---4-4-4-4-0---0---0-0---0---0-0---0-0-0-0-|
Ab|-2---2---2-2---2---2-2---2-2-2-2-0---0---0-0---0---0-0---0-0-0-0-|
Db|---------------------------------0---0---0-0---0---0-0---0-0-0-0-|
  |
eb|-----------------------------------------------------------------|
Bb|-----------------------------------------------------------------|
Gb|-4---4---4-4---4---4-4---4-4-4-4---------------2---2-2---2-2-2-2-|
Db|-4---4---4-4---4---4-4---4-4-4-4-4---4---4-4---2---2-2---2-2-2-2-|
Ab|-2---2---2-2---2---2-2---2-2-2-2-4---4---4-4---0---0-0---0-0-0-0-|
Db|---------------------------------4---4---4-4---------------------|

	Verse:
	
eb|-----------------------------------------------------------------|
Bb|-----------------------------------------------------------------|
Gb|-----7-7-6-6---------7-7-6-6---------7-7-6-6---------7-7-6-6-7/--|
Db|-4-4---------7-7---7---------7-7-4-4---------7-7---7-------------|
Ab|-----------------------------------------------------------------|
Db|-----------------------------------------------------------------|
  | . . . . . . . .   . . . . . . . . . . . . . . .   . . . . .     |
  |
eb|-----------------------------------------------------------------|
Bb|-----------------------------------------------------------------|
Gb|-----7-7-6-6---------7-7-6-6---------7-7-6-6---------7-7-6-6-7/--|
Db|-4-4---------7-7---7---------7-7-4-4---------7-7---7-------------|
Ab|-----------------------------------------------------------------|
Db|-----------------------------------------------------------------|
  | . . . . . . . .   . . . . . . . . . . . . . . .   . . . . .     |
  |
eb|-----------------------------------------------------------------|
Bb|-----------------------------------------------------------------|
Gb|-----7-7-6-6---------7-7-6-6---------7-7-6-6---------7-7-6-6-7/--|
Db|-4-4---------7-7---7---------7-7-4-4---------7-7---7-------------|
Ab|-----------------------------------------------------------------|
Db|-----------------------------------------------------------------|
  | . . . . . . . .   . . . . . . . . . . . . . . .   . . . . .     |
  |
eb|-----------------------------------------------------------------|
Bb|-----------------------------------------------------------------|
Gb|-----7-7-6-6---------7-7-6-6---------7-7-6-6---------------------|
Db|-4-4---------7-7---7---------7-7-4-4---------7-7-----------------|
Ab|---------------------------------------------------0-0-0-0-0-0-0-|
Db|-----------------------------------------------------------------|
  | . . . . . . . .   . . . . . . . . . . . . . . .                 |

	Bridge:
	
eb|-----------------------------------------------------------------|
Bb|-----------------------------------------------------------------|
Gb|-----------------------------------------------------------------|
Db|-----------------------------------------------------------------|
Ab|-----------------------------------------------------------------|
Db|-2-2-2-2-2-2-2-2-2-2-2-2-2-2-2-2-5-5-5-5-5-5-5-5-5-5-5-5-5-5-5-5-|
  | . . . . . . . . . . . . . . . . . . . . . . . . . . . . . . . . |
  |
eb|-----------------------------------------------------------------|
Bb|-----------------------------------------------------------------|
Gb|-----------------------------------------------------------------|
Db|---------------------------------5-5-5---------------------------|
Ab|---------------------------------5-5-5---------------------------|
Db|-2-2-2-2-2-2-2-2-2-2-2-2-2-2-2-2-5-5-5---------------------------|
  | . . . . . . . . . . . . . . . .                                 |

	Chorus:

eb|-----------------------------------------------------------------|
Bb|-----------------------------------------------------------------|
Gb|-4---4---4-4---4---4-4---4-4-4-4---------------------------------|
Db|-4---4---4-4---4---4-4---4-4-4-4-0---0---0-0---0---0-0---0-0-0-0-|
Ab|-2---2---2-2---2---2-2---2-2-2-2-0---0---0-0---0---0-0---0-0-0-0-|
Db|---------------------------------0---0---0-0---0---0-0---0-0-0-0-|
  |
eb|-----------------------------------------------------------------|
Bb|-----------------------------------------------------------------|
Gb|-4---4---4-4---4---4-4---4-4-4-4---------------2---2-2---2-2-2-2-|
Db|-4---4---4-4---4---4-4---4-4-4-4-4---4---4-4---2---2-2---2-2-2-2-|
Ab|-2---2---2-2---2---2-2---2-2-2-2-4---4---4-4---0---0-0---0-0-0-0-|
Db|---------------------------------4---4---4-4---------------------|
  |
eb|-----------------------------------------------------------------|
Bb|-----------------------------------------------------------------|
Gb|-4---4---4-4---4---4-4---4-4-4-4---------------------------------|
Db|-4---4---4-4---4---4-4---4-4-4-4-0---0---0-0---0---0-0---0-0-0-0-|
Ab|-2---2---2-2---2---2-2---2-2-2-2-0---0---0-0---0---0-0---0-0-0-0-|
Db|---------------------------------0---0---0-0---0---0-0---0-0-0-0-|
  |
eb|-----------------------------------------------------------------|
Bb|-----------------------------------------------------------------|
Gb|-4---4---4-4---4---4-4---4-4-4-4---------------2---2-2---2-2-2-2-|
Db|-4---4---4-4---4---4-4---4-4-4-4-4---4---4-4---2---2-2---2-2-2-2-|
Ab|-2---2---2-2---2---2-2---2-2-2-2-4---4---4-4---0---0-0---0-0-0-0-|
Db|---------------------------------4---4---4-4---------------------|

	Verse:
	
eb|-----------------------------------------------------------------|
Bb|-----------------------------------------------------------------|
Gb|-----7-7-6-6---------7-7-6-6---------7-7-6-6---------7-7-6-6-7/--|
Db|-4-4---------7-7---7---------7-7-4-4---------7-7---7-------------|
Ab|-----------------------------------------------------------------|
Db|-----------------------------------------------------------------|
  | . . . . . . . .   . . . . . . . . . . . . . . .   . . . . .     |
  |
eb|-----------------------------------------------------------------|
Bb|-----------------------------------------------------------------|
Gb|-----7-7-6-6---------7-7-6-6---------7-7-6-6---------7-7-6-6-7/--|
Db|-4-4---------7-7---7---------7-7-4-4---------7-7---7-------------|
Ab|-----------------------------------------------------------------|
Db|-----------------------------------------------------------------|
  | . . . . . . . .   . . . . . . . . . . . . . . .   . . . . .     |
  |
eb|-----------------------------------------------------------------|
Bb|-----------------------------------------------------------------|
Gb|-----7-7-6-6---------7-7-6-6---------7-7-6-6---------7-7-6-6-7/--|
Db|-4-4---------7-7---7---------7-7-4-4---------7-7---7-------------|
Ab|-----------------------------------------------------------------|
Db|-----------------------------------------------------------------|
  | . . . . . . . .   . . . . . . . . . . . . . . .   . . . . .     |
  |
eb|-----------------------------------------------------------------|
Bb|-----------------------------------------------------------------|
Gb|-----7-7-6-6---------7-7-6-6---------7-7-6-6---------------------|
Db|-4-4---------7-7---7---------7-7-4-4---------7-7-----------------|
Ab|---------------------------------------------------0-0-0-0-0-0-0-|
Db|-----------------------------------------------------------------|
  | . . . . . . . .   . . . . . . . . . . . . . . .                 |

	Bridge:
	
eb|-----------------------------------------------------------------|
Bb|-----------------------------------------------------------------|
Gb|-----------------------------------------------------------------|
Db|-----------------------------------------------------------------|
Ab|-----------------------------------------------------------------|
Db|-2-2-2-2-2-2-2-2-2-2-2-2-2-2-2-2-5-5-5-5-5-5-5-5-5-5-5-5-5-5-5-5-|
  | . . . . . . . . . . . . . . . . . . . . . . . . . . . . . . . . |
  |
eb|-----------------------------------------------------------------|
Bb|-----------------------------------------------------------------|
Gb|-----------------------------------------------------------------|
Db|---------------------------------5-5-5---------------------------|
Ab|---------------------------------5-5-5---------------------------|
Db|-2-2-2-2-2-2-2-2-2-2-2-2-2-2-2-2-5-5-5---------------------------|
  | . . . . . . . . . . . . . . . .                                 |
  
	Chorus:
	
	Chorus:

eb|--------------------------------------------------------|
Bb|--------------------------------------------------------|
Gb|-4---4---4-4---4---4-4---4-4-4-4------------------------|
Db|-4---4---4-4---4---4-4---4-4-4-4-0-0------0-0-----0-0-0-|
Ab|-2---2---2-2---2---2-2---2-2-2-2-0-0------0-0-----0-0-0-|
Db|---------------------------------0-0------0-0-----0-0-0-|
  |                                 . .      . .     . . . |
  |
eb|-----------------------------------------------------------------|
Bb|-----------------------------------------------------------------|
Gb|-4---4---4-4---4---4-4---4-4-4-4---------------2---2-2---2-2-2-2-|
Db|-4---4---4-4---4---4-4---4-4-4-4-4---4---4-4---2---2-2---2-2-2-2-|
Ab|-2---2---2-2---2---2-2---2-2-2-2-4---4---4-4---0---0-0---0-0-0-0-|
Db|---------------------------------4---4---4-4---------------------|
  |
eb|--------------------------------------------------------|
Bb|--------------------------------------------------------|
Gb|-4---4---4-4---4---4-4---4-4-4-4------------------------|
Db|-4---4---4-4---4---4-4---4-4-4-4-0-0------0-0-----0-0-0-|
Ab|-2---2---2-2---2---2-2---2-2-2-2-0-0------0-0-----0-0-0-|
Db|---------------------------------0-0------0-0-----0-0-0-|
  |                                 . .      . .     . . . |
  |
eb|-----------------------------------------------------------------|
Bb|-----------------------------------------------------------------|
Gb|-4---4---4-4---4---4-4---4-4-4-4-6-6-6-6-6-6-6-6-6-6-6-6-6-6-6-6-|
Db|-4---4---4-4---4---4-4---4-4-4-4-x-x-x-x-x-x-x-x-x-x-x-x-x-x-x-x-|
Ab|-2---2---2-2---2---2-2---2-2-2-2-4-4-4-4-4-4-4-4-4-4-4-4-4-4-4-4-|
Db|-----------------------------------------------------------------|

	Interlude:
	
eb|------------------------------------------------------------------|
Bb|------------------------------------------------------------------|
Gb|-4-4-4------------------------------------------------------------|
Db|-4-4-4--------------------------5-5-5-----------------------------|
Ab|-2-2-2--------------------------5-5-5-----------------------------|
Db|--------------------------------5-5-5-----------------------------|
  |
eb|---------------------------------------------------------------|
Bb|---------------------------------------------------------------|
Gb|-4-4-4--------------------------2---2---2---2---2---2---x------|
Db|-4-4-4--------------------------2---2---2---2---2---2---x-0----|
Ab|-2-2-2--------------------------0---0---0---0---0---0---x-0----|
Db|----------------------------------------------------------0----|
  |
eb|------------------------------------------------------------------|
Bb|------------------------------------------------------------------|
Gb|-4-4-4------------------------------------------------------------|
Db|-4-4-4--------------------------5-5-5-----------------------------|
Ab|-2-2-2--------------------------5-5-5-----------------------------|
Db|--------------------------------5-5-5-----------------------------|
  |
eb|---------------------------------------------------------------|
Bb|---------------------------------------------------------------|
Gb|-4-4-4--------------------------2---2---2---2---2---2---x------|
Db|-4-4-4--------------------------2---2---2---2---2---2---x-4----|
Ab|-2-2-2--------------------------0---0---0---0---0---0---x-4----|
Db|----------------------------------------------------------4----|

	Chorus:

eb|-------------------------------------------------|
Bb|-------------------------------------------------|
Gb|-4/----------------------------------------------|
Db|-4/----------------------------------------------|
Ab|-2/----------------------------------------------|
Db|-------------------------------------------------|
  |
eb|-----------------------------------------------------------------|
Bb|-----------------------------------------------------------------|
Gb|-4---4---4-4---4---4-4---4-4-4-4---------------2---2-2---2-2-2-2-|
Db|-4---4---4-4---4---4-4---4-4-4-4-4---4---4-4---2---2-2---2-2-2-2-|
Ab|-2---2---2-2---2---2-2---2-2-2-2-4---4---4-4---0---0-0---0-0-0-0-|
Db|---------------------------------4---4---4-4---------------------|
  |
eb|-----------------------------------------------------------------|
Bb|-----------------------------------------------------------------|
Gb|-4---4---4-4---4---4-4---4-4-4-4---------------------------------|
Db|-4---4---4-4---4---4-4---4-4-4-4-0---0---0-0---0---0-0---0-0-0-0-|
Ab|-2---2---2-2---2---2-2---2-2-2-2-0---0---0-0---0---0-0---0-0-0-0-|
Db|---------------------------------0---0---0-0---0---0-0---0-0-0-0-|
  |
eb|-----------------------------------------------------------------|
Bb|-----------------------------------------------------------------|
Gb|-4---4---4-4---4---4-4---4-4-4-4---------------2---2-2---2-2-2-2-|
Db|-4---4---4-4---4---4-4---4-4-4-4-4---4---4-4---2---2-2---2-2-2-2-|
Ab|-2---2---2-2---2---2-2---2-2-2-2-4---4---4-4---0---0-0---0-0-0-0-|
Db|---------------------------------4---4---4-4---------------------|
  |
eb|-----------------------------------------------------------------|
Bb|-----------------------------------------------------------------|
Gb|-------------------------------------------------2-2-2-2-2-2-2-2-|
Db|-4-4-4-4-4-4-4-4-4-4-4-4-4-4-4-4-5-5-5-5-5-5-5-5-2-2-2-2-2-2-2-2-|
Ab|-4-4-4-4-4-4-4-4-4-4-4-4-4-4-4-4-5-5-5-5-5-5-5-5-0-0-0-0-0-0-0-0-|
Db|-4-4-4-4-4-4-4-4-4-4-4-4-4-4-4-4-5-5-5-5-5-5-5-5-----------------|
  |   . . . . . . . . . . . . . . . . . . . . . . . . . . . . . . . |

	Outro:

eb|-----------------------------------------------------------------|
Bb|---------------------------------7-7-7---7---7-7-----------------|
Gb|-7-7-7---7---7-7-7-7-7---7---7-7-x-x-x---x---x-x-6-6-6---6---6-6-|
Db|-x-x-x---x---x-x-x-x-x---x---x-x-4-4-4---4---4-4-x-x-x---x---x-x-|
Ab|-5-5-5---5---5-5-5-5-5---5---5-5-----------------4-4-4---4---4-4-|
Db|-----------------------------------------------------------------|
  |
eb|----------------------------------------------------------------|
Bb|----------------------------------------------------------------|
Gb|-9-9-9---9---9-9-9-9-9---9---9-9-9---7---7---7---6---6---6-7-9--|
Db|-x-x-x---x---x-x-x-x-x---x---x-x-x---x---x---x---x---x---x-x-x--|
Ab|-7-7-7---7---7-7-7-7-7---7---7-7-7---5---5---5---4---4---4-5-7--|
Db|----------------------------------------------------------------|
  |
eb|-----------------------------------------------------------------|
Bb|---------------------------------7-7-7---7---7-7-----------------|
Gb|-7-7-7---7---7-7-7-7-7---7---7-7-x-x-x---x---x-x-6-6-6---6---6-6-|
Db|-x-x-x---x---x-x-x-x-x---x---x-x-4-4-4---4---4-4-x-x-x---x---x-x-|
Ab|-5-5-5---5---5-5-5-5-5---5---5-5-----------------4-4-4---4---4-4-|
Db|-----------------------------------------------------------------|
  |
eb|----------------------------------------------------------------|
Bb|----------------------------------------------------------------|
Gb|-9-9-9---9---9-9-9-9-9---9---9-9-9---7---7---7---9-------7------|
Db|-x-x-x---x---x-x-x-x-x---x---x-x-x---x---x---x---x-------x------|
Ab|-7-7-7---7---7-7-7-7-7---7---7-7-7---5---5---5---7-------5------|
Db|----------------------------------------------------------------|
  |
eb|-----------------------------------|
Bb|-----------------------------------|
Gb|-4---------------------------------|
Db|-4---------------------------------|
Ab|-2---------------------------------|
Db|-----------------------------------|





Comments


Popular Ivoryline tabs & chords
Days End Bass Tabs
Vessels Bass Tabs
Made From Dust Chords
Be Still And Breathe Tabs
Remind Me I'm Alive Tabs
The Healing Tabs
The Last Words Tabs
The Last Words 2 Tabs
Vessels Tabs
Made From Dust Ukulele


Song lyrics



↑ Back to top | Tablatures and chords are parodies/interpretations of the original songs. You may use it for private study, scholarship, research or language learning purposes only
© 2014 AZChords.com Contact us | Privacy policy | DMCA | Add/correct tabs | Request tabs | Top 50 tabs