>
 >
Instincts

Instincts Guitar Tabs

Ivoryline - Instincts chords, tabs, tablatures, lyrics

Guitar lessons | Add/correct | Request | Top 50 tabs Artists:  A B C D E F G H I J K L M N O P Q R S T U V W X Y Z 0-9

Instincts Guitar Tabs – Ivoryline

CD, Sheet music, Poster

Do you like Instincts? Share with your friends now
Bass TabsTabs
	Instincts

Genre: Rock
Info:
 ^ | Bend
 ~ | Vibrato
 / | Slide Onto
 . | Palm Mute
 x | Fret Mute

_____________________________________________________________________________
Guitar 1:
(DADGBe)

	Intro:

e|-------------------8-10-8-------------------------------------------------|
B|-----11-----10------------11-----10-11-----11-----10-----6-8-6---8-6-8-10-|
G|-7-7----7-7----7-7-----------7-7-------7-7----7-7----7-7-------7----------|
D|--------------------------------------------------------------------------|
A|--------------------------------------------------------------------------|
D|--------------------------------------------------------------------------|
 |
e|-------------------8----------------------------------------------------------|
B|-----11-----10-----------11-----10-11-8-8-8-8-8-8-8-8-8/-10-10-10-10-10-10-10-|
G|-7-7----7-7----7-7---7-7----7-7-------x-x-x-x-x-x-x-x-x--x--x--x--x--x--x--x--|
D|--------------------------------------5-5-5-5-5-5-5-5-5/-8--8--8--8--8--8--8--|
A|------------------------------------------------------------------------------|
D|------------------------------------------------------------------------------|

	Verse:

With Delay
e|----------------------------------------------------------|
B|-10--1010--1010--1010--10-----8---8-8---8-8---8-----------|
G|-7---7-7---7-7---7-7---7------5---5-5---5-5---5---xxx-xxx-|
D|-8---7-7---7-7---7-7---7------5---5-5---5-5---3---xxx-xxx-|
A|--------------------------------------------------xxx-xxx-|
D|----------------------------------------------------------|
 |
e|----------------------------------------------------------|
B|-10--1010--1010--1010--10-----8---8-8---8-8---------------|
G|-7---7-7---7-7---7-7---7------5---5-5---5-5---2^----------|
D|-8---7-7---7-7---7-7---7------5---5-5---5-5/3-------------|
A|----------------------------------------------------------|
D|----------------------------------------------------------|
 |
e|----------------------------------------------------------|
B|-10--1010--1010--1010--10-----8---8-8---8-8---8-----------|
G|-7---7-7---7-7---7-7---7------5---5-5---5-5---5-----------|
D|-8---7-7---7-7---7-7---7------3---3-3---3-3---3---5-7-5-7-|
A|----------------------------------------------------------|
D|----------------------------------------------------------|
 |
e|----------------------------------------------------------|
B|-10--1010--1010--1010--10-----8---8-8---8-8---------------|
G|-7---7-7---7-7---7-7---7------5---5-5---5-5---2~~~~~------|
D|-5---5-5---5-5---5-5---5------3---3-3---3-3-0-------------|
A|----------------------------------------------------------|
D|----------------------------------------------------------|

	Bridge:

e|-------------------------------------------------------------|
B|------------------------------8--------------8-8-8-8-8-8-8-8-|
G|----------------------------------8-7--------7-7-7-7-7-7-7-7-|
D|-5-7---8-7-5-----5-7---8-7/------------8--7--7-7-7-7-7-7-7-7-|
A|-------------8-5-----------------------------5-5-5-5-5-5-5-5-|
D|-------------------------------------------------------------|
 |                                             . . . . . . . . |
                                               Partial Palm Mute

	Chorus:

e|-------------------------------------------------------------------------|
B|-----------------11-11-11-11-10-10-10-10-8-8-8-8-8-8-8-8-6-6-6-6-6/8-8-8-|
G|-7-7-7-7-7-7-7-7---------------------------------------------------------|
D|-------------------------------------------------------------------------|
A|-------------------------------------------------------------------------|
D|-------------------------------------------------------------------------|
 |
e|-------------------8-10-8-------------------------------------------------|
B|-----11-----10------------11-----10-11-----11-----10-----6-8-6---8-6-8-10-|
G|-7-7----7-7----7-7-----------7-7-------7-7----7-7----7-7-------7----------|
D|--------------------------------------------------------------------------|
A|--------------------------------------------------------------------------|
D|--------------------------------------------------------------------------|
 |
e|-------------------------------------------------------------------------|
B|-----------------11-11-11-11-10-10-10-10-8-8-8-8-8-8-8-8-6-6-6-6-6/8-8-8-|
G|-7-7-7-7-7-7-7-7---------------------------------------------------------|
D|-------------------------------------------------------------------------|
A|-------------------------------------------------------------------------|
D|-------------------------------------------------------------------------|
 |
e|-------------------8----------------------------------------------------------|
B|-----11-----10-----------11-----10-11-8-8-8-8-8-8-8-8-8/-10-10-10-10-10-10-10-|
G|-7-7----7-7----7-7---7-7----7-7-------x-x-x-x-x-x-x-x-x--x--x--x--x--x--x--x--|
D|--------------------------------------5-5-5-5-5-5-5-5-5/-8--8--8--8--8--8--8--|
A|------------------------------------------------------------------------------|
D|------------------------------------------------------------------------------|

	Verse:

e|-----------------------------------------------------------------|
B|-----------------------------------------------------------------|
G|-----------------------------------------------------------------|
D|-------8-8-8-7-7-7---------------------5-5-5---------------------|
A|-5-5-5-------------8-8-8-8-8-8-8-5-5-5-------3-3-3-3-3-3-3-3-3-3-|
D|-----------------------------------------------------------------|
 |
e|-----------------------------------------------------------------|
B|-----------------------------------------------------------------|
G|---------------------------------------8-----7-------------------|
D|-------8-----7-------------------5-----------------8-------------|
A|-5-----------------8-------------------------------------8-------|
D|-----------------------------------------------------------------|
 |
e|-----------------------------------------------------------------|
B|-----------------------------------------------------------------|
G|-----------------------------------------------------------------|
D|-------8---8---------------------------5-5-5---------------------|
A|-5-----------------8-------------5-5-5-------3-3-3-3-3-3-3-3-3-3-|
D|-----------------------------------------------------------------|
 |
e|-----------------------------------------------------------------|
B|-----------------------------------------------------------------|
G|---------------------------------------8-----7-------------------|
D|-------8-----7-------------------5-----------------8-------------|
A|-5-----------------8-------------------------------------8-------|
D|-----------------------------------------------------------------|

	Bridge:

e|-------------------------------------------------------------|
B|------------------------------8--------------8-8-8-8-8-8-8-8-|
G|----------------------------------8-7--------7-7-7-7-7-7-7-7-|
D|-5-7---8-7-5-----5-7---8-7/------------8--7--7-7-7-7-7-7-7-7-|
A|-------------8-5-----------------------------5-5-5-5-5-5-5-5-|
D|-------------------------------------------------------------|
 |                                             . . . . . . . . |
                                               Partial Palm Mute

	Chorus:

e|-------------------------------------------------------------------------|
B|-----------------11-11-11-11-10-10-10-10-8-8-8-8-8-8-8-8-6-6-6-6-6/8-8-8-|
G|-7-7-7-7-7-7-7-7---------------------------------------------------------|
D|-------------------------------------------------------------------------|
A|-------------------------------------------------------------------------|
D|-------------------------------------------------------------------------|
 |
e|-------------------8-10-8-------------------------------------------------|
B|-----11-----10------------11-----10-11-----11-----10-----6-8-6---8-6-8-10-|
G|-7-7----7-7----7-7-----------7-7-------7-7----7-7----7-7-------7----------|
D|--------------------------------------------------------------------------|
A|--------------------------------------------------------------------------|
D|--------------------------------------------------------------------------|
 |
e|-------------------------------------------------------------------------|
B|-----------------11-11-11-11-10-10-10-10-8-8-8-8-8-8-8-8-6-6-6-6-6/8-8-8-|
G|-7-7-7-7-7-7-7-7---------------------------------------------------------|
D|-------------------------------------------------------------------------|
A|-------------------------------------------------------------------------|
D|-------------------------------------------------------------------------|
 |
e|-------------------8----------------------------------------------------------|
B|-----11-----10-----------11-----10-11-8-8-8-8-8-8-8-8-8/-10-10-10-10-10-10-10-|
G|-7-7----7-7----7-7---7-7----7-7-------x-x-x-x-x-x-x-x-x--x--x--x--x--x--x--x--|
D|--------------------------------------5-5-5-5-5-5-5-5-5/-8--8--8--8--8--8--8--|
A|------------------------------------------------------------------------------|
D|------------------------------------------------------------------------------|

	Interlude:

Part A
> Guitar 2 takes over the melody guitar here with a bit of a breakdown while
Guitar 1 plays this in the background.
e|----------------------------------------------------|
B|-7^(8)-------------------7^(8)-------------8-888----|
G|-x-----------------------x-----------------x-xxx----|
D|-5-----------------------5-----------------5-555----|
A|----------------------------------------------------|
D|----------------------------------------------------|
 |
e|----------------------------------------------------|
B|-7^(8)-------------------7^(8)-------------8-888----|
G|-x-----------------------x-----------------x-xxx----|
D|-5-----------------------5-----------------5-555----|
A|----------------------------------------------------|
D|----------------------------------------------------|

Part B
e|----------------------------------------------------|
B|--------------------------------------8---8-8-8-10--|
G|--------------------------------------8---8-8-8-----|
D|-5---5-5-5-5-4---4-4-4-4-13--13131212-8---8-8-8-----|
A|-5---5-5-5-5-5---5-5-5-5-10--10101010-6---6-6-6-----|
D|-5---5-5-5-5-4---4-4-4-4-10--10101010---------------|
 |
e|----------------------------------------------------|
B|----------------------------------------------------|
G|-----------------------------------0----------0-----|
D|-5---5-5-5-5-4---4-4-4-4-1---1-1-1----1---1-1----1--|
A|-5---5-5-5-5-5---5-5-5-5-1---1-1-1----1---1-1-------|
D|-5---5-5-5-5-4---4-4-4-4-1---1-1-1----1---1-1-------|
 |
e|----------------------------------------------------|
B|----------------------------------------------------|
G|--------------------------------------8-------------|
D|-5---5-5-5-5-4---4-4-4-4-10--10101010-8-------------|
A|-5---5-5-5-5-5---5-5-5-5-10--10101010-6-------------|
D|-5---5-5-5-5-4---4-4-4-4-10--10101010---------------|

Part C
> Clean with delay
e|-----------------------------------------------------------|
B|-----------------------------------------------------------|
G|------------------7-8-7------------------------------------|
D|-8-8----5-5--------------7-------8-8----5-5----------------|
A|-----------------------------------------------------------|
D|-----------------------------------------------------------|
 |
> Distortion
e|---------------------|
B|-x-x-8-8-8-8-8-8-8-8-|
G|-x-x-5-5-5-5-5-5-5-5-|
D|-x-x-5-5-5-5-5-5-5-5-|
A|-x-x-5-5-5-5-5-5-5-5-|
D|---------------------|

	Chorus:

e|-------------------------------------------------------------------------|
B|-----------------11-11-11-11-10-10-10-10-8-8-8-8-8-8-8-8-6-6-6-6-6/8-8-8-|
G|-7-7-7-7-7-7-7-7---------------------------------------------------------|
D|-------------------------------------------------------------------------|
A|-------------------------------------------------------------------------|
D|-------------------------------------------------------------------------|
 |
e|-------------------8-10-8-------------------------------------------------|
B|-----11-----10------------11-----10-11-----11-----10-----6-8-6---8-6-8-10-|
G|-7-7----7-7----7-7-----------7-7-------7-7----7-7----7-7-------7----------|
D|--------------------------------------------------------------------------|
A|--------------------------------------------------------------------------|
D|--------------------------------------------------------------------------|
 |
e|-------------------------------------------------------------------------|
B|-----------------11-11-11-11-10-10-10-10-8-8-8-8-8-8-8-8-6-6-6-6-6/8-8-8-|
G|-7-7-7-7-7-7-7-7---------------------------------------------------------|
D|-------------------------------------------------------------------------|
A|-------------------------------------------------------------------------|
D|-------------------------------------------------------------------------|
 |
e|-------------------8----------------------------------------------------------|
B|-----11-----10-----------11-----10-11-8-8-8-8-8-8-8-8-8/-10-10-10-10-10-10-10-|
G|-7-7----7-7----7-7---7-7----7-7-------x-x-x-x-x-x-x-x-x--x--x--x--x--x--x--x--|
D|--------------------------------------5-5-5-5-5-5-5-5-5/-8--8--8--8--8--8--8--|
A|------------------------------------------------------------------------------|
D|------------------------------------------------------------------------------|


	Outro:

e|------------------------------------------------------------------------|
B|---------------------------------8--------------8--------8--------------|
G|-------------------------------------8-7------------8-7------8-7--------|
D|-5-7---8-7-5-----5-7---8-7-5--------------8--7--------------------8--7--|
A|-------------8-5-------------8-5----------------------------------------|
D|------------------------------------------------------------------------|
 |
e|------------------------------------------------------------|
B|------------------------------8--------------8--------------|
G|----------------------------------8-7------------8-7--------|
D|-5-7---8-7-5-----5-7---8-7/------------8--7-----------8--7--|
A|-------------8-5--------------------------------------------|
D|------------------------------------------------------------|

_____________________________________________________________________
Guitar 2:
(DADGBe)
> Guitar 2 may be in Drop C. I've tabbed it for D since most of the song can be played 
Drop D there's just one chord in the outro (Bar on the 10th fret) that sounds more like 
octave down open chord on the lowest three strings when tuned in Drop C.

	Intro:

e|-------------------------------------------------------------|
B|-------------------------------------------------------------|
G|-------------------------------------------------------------|
D|-8-8--8-8-----5-5--5-5-----12-12--12-12-12/13-7-7--7-7-7-7/8-|
A|-5-5--5-5-----1-1--1-1-----10-10--10-10-10----3-3--3-3-3-3/5-|
D|-5-5--5-5-----1-1--1-1-----10-10--10-10-10----3-3--3-3-3-3/5-|
 |   .  .         .  .          .   .             .  .         |
 |
e|-------------------------------------------------------------|
B|-------------------------------------------------------------|
G|-------------------------------------------------------------|
D|-8-8--8-8-----5-5--5-5-----12-12--12-12-12/13-7-7--7-7-7-7-7-|
A|-5-5--5-5-----1-1--1-1-----10-10--10-10-10----3-3--3-3-3-3-3-|
D|-5-5--5-5-----1-1--1-1-----10-10--10-10-10----3-3--3-3-3-3-3-|
 |   .  .         .  .          .   .             .  .         |

	Verse:

> Clean with Delay
e|-----------------------------------------------------------------|
B|-----------------------------------------------------------------|
G|-----------------------------------------------------------------|
D|-----------------------------------------------------------------|
A|-----------------------------------------------------------------|
D|-----------------------------------------------------------------|
 |
e|-----------------------------------------------------------------|
B|-----------------------------------------------------------------|
G|-----------------------------------------------------------------|
D|-----------------------------------------------------------------|
A|-----------------------------------------------------------------|
D|-----------------------------------------------------------------|
 |
e|-----------------------------------------------------------------|
B|-8---8---8---8---8---8-----------8---8---8---8---8---8-----------|
G|-------7---7---7---7---5-5-7-----------7---7---7---7---5-5-7-----|
D|-----------------------------8-8-----------------------------8-8-|
A|-----------------------------------------------------------------|
D|-----------------------------------------------------------------|
 |
e|-----------------------------------------------------------------|
B|-8---8---8---8---8---8-------------------------------------------|
G|-------7---7---7---7---5-5-7-----------------5---5-7-7-5-5-7-5-7-|
D|-----------------------------8-8-7---7-8-7-8---8-----------------|
A|-----------------------------------------------------------------|
D|-----------------------------------------------------------------|

	Bridge:

e|---------------------------------------------|
B|-----------------------------8-8-8-8-8-8-8-8-|
G|-----------------------------7-7-7-7-7-7-7-7-|
D|-5-5-----7-7---8/----1-1-----7-7-7-7-7-7-7-7-|
A|-5-5-----7-7---8/----1-1-----5-5-5-5-5-5-5-5-|
D|-5-5-----7-7---8/----1-1---------------------|

	Chorus:

e|--------------------------------------------------------|
B|--------------------------------------------------------|
G|--------------------------------------------------------|
D|-5-5----5-----1-1----1-----10-10----10-----3-3----3-----|
A|-5-5----5-----1-1----1-----10-10----10-----3-3----3-----|
D|-5-5----5-----1-1----1-----10-10----10-----3-3----3-----|
 |
e|----------------------------------------------------------|
B|----------------------------------------------------------|
G|--------------------------------------------8-8---8-8-----|
D|-5-5--5-5-----1-1--1-1-----10-10--10-10-----8-8---8-8-----|
A|-5-5--5-5-----1-1--1-1-----10-10--10-10-----6-6---6-6-----|
D|-5-5--5-5-----1-1--1-1-----10-10--10-10-------------------|
 |   .  .         .  .          .   .           .   .       |
 |
e|--------------------------------------------------------|
B|--------------------------------------------------------|
G|--------------------------------------------------------|
D|-5-5----5-----1-1----1-----10-10----10-----3-3----3-----|
A|-5-5----5-----1-1----1-----10-10----10-----3-3----3-----|
D|-5-5----5-----1-1----1-----10-10----10-----3-3----3-----|
 |
e|----------------------------------------------------------|
B|----------------------------------------------------------|
G|----------------------------------------------------------|
D|-5-5--5-5-----1-1--1-1-----10-10--10-10-----7-7---7-7-----|
A|-5-5--5-5-----1-1--1-1-----10-10--10-10-----7-7---7-7-----|
D|-5-5--5-5-----1-1--1-1-----10-10--10-10-----7-7---7-7-----|
 |   .  .         .  .          .   .           .   .       |

	Verse:

> Clean with Delay
e|-----------------------------------------------------------------|
B|-----------------------------------------------------------------|
G|-----------------------------------------------------------------|
D|---------------------------------3/5-5---------------------------|
A|-----------------------------------------------------------------|
D|-----------------------------------------------------------------|
 |
e|-----------------------------------------------------------------|
B|-----------------------------------------------------------------|
G|-----3-------------------------------3---3-------5-------5-------|
D|-3/5--5--------------------------3-5---5---5-3-5---5-3-5---5-3-5-|
A|-----------------------------------------------------------------|
D|-----------------------------------------------------------------|
 |
e|-----------------------------------------------------------------|
B|-----------------------------------------------------------------|
G|-----3---3-------3---3-------5-------3---3-------3---3-------5---|
D|-3-5---5---5-3-5---5---5-3-5---5-3-5---5---5-3-5---5---5-3-5---5-|
A|-----------------------------------------------------------------|
D|-----------------------------------------------------------------|
 |
e|-----------------------------------------------------------------|
B|-----------------------------------------------------------------|
G|-----3---3-------3---3-------5-------3---3-------3---3-------5---|
D|-3-5---5---5-3-5---5---5-3-5---5-3-5---5---5-3-5---5---5-3-5---5-|
A|-----------------------------------------------------------------|
D|-----------------------------------------------------------------|

	Bridge:

e|---------------------------------------------|
B|-----------------------------8-8-8-8-8-8-8-8-|
G|-----------------------------7-7-7-7-7-7-7-7-|
D|-5-5-----7-7---8/----1-1-----7-7-7-7-7-7-7-7-|
A|-5-5-----7-7---8/----1-1-----5-5-5-5-5-5-5-5-|
D|-5-5-----7-7---8/----1-1---------------------|

	Chorus:

e|--------------------------------------------------------|
B|--------------------------------------------------------|
G|--------------------------------------------------------|
D|-5-5----5-----1-1----1-----10-10----10-----3-3----3-----|
A|-5-5----5-----1-1----1-----10-10----10-----3-3----3-----|
D|-5-5----5-----1-1----1-----10-10----10-----3-3----3-----|
 |
e|----------------------------------------------------------|
B|----------------------------------------------------------|
G|--------------------------------------------8-8---8-8-----|
D|-5-5--5-5-----1-1--1-1-----10-10--10-10-----8-8---8-8-----|
A|-5-5--5-5-----1-1--1-1-----10-10--10-10-----6-6---6-6-----|
D|-5-5--5-5-----1-1--1-1-----10-10--10-10-------------------|
 |   .  .         .  .          .   .           .   .       |
 |
e|--------------------------------------------------------|
B|--------------------------------------------------------|
G|--------------------------------------------------------|
D|-5-5----5-----1-1----1-----10-10----10-----3-3----3-----|
A|-5-5----5-----1-1----1-----10-10----10-----3-3----3-----|
D|-5-5----5-----1-1----1-----10-10----10-----3-3----3-----|
 |
e|----------------------------------------------------------|
B|----------------------------------------------------------|
G|----------------------------------------------------------|
D|-5-5--5-5-----1-1--1-1-----10-10--10-10-----7-7---7-7-----|
A|-5-5--5-5-----1-1--1-1-----10-10--10-10-----7-7---7-7-----|
D|-5-5--5-5-----1-1--1-1-----10-10--10-10-----7-7---7-7-----|
 |   .  .         .  .          .   .           .   .       |


	Interlude:

Part A
e|----------------------------------------------------|
B|-------------------------------------------8-888----|
G|-------------------------------------------8-888----|
D|-------------------------------------------8-888----|
A|-------------------------------------------6-666----|
D|-5-5-555---555-5-5555--555-5-5555--555-5-55---------|
 |
e|----------------------------------------------------|
B|-------------------------------------------8-888----|
G|-------------------------------------------8-888----|
D|-------------------------------------------8-888----|
A|-------------------------------------------6-666----|
D|-5-5-555---555-5-5555--555-5-5555--555-5-55---------|

Part B
e|----------------------------------------------------|
B|--------------------------------------8---8-8-8-10--|
G|--------------------------------------8---8-8-8-----|
D|-5---5-5-5-5-4---4-4-4-4-13--13131212-8---8-8-8-----|
A|-5---5-5-5-5-5---5-5-5-5-10--10101010-6---6-6-6-----|
D|-5---5-5-5-5-4---4-4-4-4-10--10101010---------------|
 |
e|----------------------------------------------------|
B|----------------------------------------------------|
G|-----------------------------------0----------0-----|
D|-5---5-5-5-5-4---4-4-4-4-1---1-1-1----1---1-1----1--|
A|-5---5-5-5-5-5---5-5-5-5-1---1-1-1----1---1-1-------|
D|-5---5-5-5-5-4---4-4-4-4-1---1-1-1----1---1-1-------|
 |
e|----------------------------------------------------|
B|----------------------------------------------------|
G|--------------------------------------8-------------|
D|-5---5-5-5-5-4---4-4-4-4-10--10101010-8-------------|
A|-5---5-5-5-5-5---5-5-5-5-10--10101010-6-------------|
D|-5---5-5-5-5-4---4-4-4-4-10--10101010---------------|

Part C
> Clean with delay
e|-----------------------------------------------------------|
B|-----------------------------------------------------------|
G|-----------------------------------------------------------|
D|-----------------------------------------------------------|
A|------------------5----------------------------------------|
D|-8------5----------------7-------8------5------------------|
 |
> Distortion
e|---------------------|
B|-x-x-----------------|
G|-x-x-----------------|
D|-x-x-1-1-1-1-1-1-1-1-|
A|-x-x-1-1-1-1-1-1-1-1-|
D|-----1-1-1-1-1-1-1-1-|

	Chorus:

e|--------------------------------------------------------|
B|--------------------------------------------------------|
G|--------------------------------------------------------|
D|-5-5----5-----1-1----1-----10-10----10-----3-3----3-----|
A|-5-5----5-----1-1----1-----10-10----10-----3-3----3-----|
D|-5-5----5-----1-1----1-----10-10----10-----3-3----3-----|
 |
e|----------------------------------------------------------|
B|----------------------------------------------------------|
G|--------------------------------------------8-8---8-8-----|
D|-5-5--5-5-----1-1--1-1-----10-10--10-10-----8-8---8-8-----|
A|-5-5--5-5-----1-1--1-1-----10-10--10-10-----6-6---6-6-----|
D|-5-5--5-5-----1-1--1-1-----10-10--10-10-------------------|
 |   .  .         .  .          .   .           .   .       |
 |
e|--------------------------------------------------------|
B|--------------------------------------------------------|
G|--------------------------------------------------------|
D|-5-5----5-----1-1----1-----10-10----10-----3-3----3-----|
A|-5-5----5-----1-1----1-----10-10----10-----3-3----3-----|
D|-5-5----5-----1-1----1-----10-10----10-----3-3----3-----|
 |
e|----------------------------------------------------------|
B|----------------------------------------------------------|
G|----------------------------------------------------------|
D|-5-5--5-5-----1-1--1-1-----10-10--10-10-----12------------|
A|-5-5--5-5-----1-1--1-1-----10-10--10-10-----12------------|
D|-5-5--5-5-----1-1--1-1-----10-10--10-10-----12------------|
 |   .  .         .  .          .   .                       |


	Outro:

e|-----------------------------------------------------------------------------------|
B|-----------------------------------------------------------------------------------|
G|-----------------------------------------------------------------------------------|
D|-5-5-----7-7--8/--1-1-----1010--10-----5-5-----7-7--8/--1-1-1-1-1-1-10-10-10-7-7-7-|
A|-5-5-----7-7--8/--1-1-----1010--10-----5-5-----7-7--8/--1-1-1-1-1-1-10-10-10-5-5-5-|
D|-5-5-----7-7--8/--1-1-----1010--10-----5-5-----7-7--8/--1-1-1-1-1-1-10-10-10-0-0-0-|





Comments


Popular Ivoryline tabs & chords
Instincts Bass Tabs
Vessels Bass Tabs
Made From Dust Chords
All You Ever Hear Tabs
Be Still And Breathe Tabs
Hearts And Minds Tabs
Parade Tabs
The Healing Tabs
Vessels Tabs
Made From Dust Ukulele


Song lyrics



↑ Back to top | Tablatures and chords are parodies/interpretations of the original songs. You may use it for private study, scholarship, research or language learning purposes only
© 2014 AZChords.com Contact us | Privacy policy | DMCA | Add/correct tabs | Request tabs | Top 50 tabs