>
 >
Hearts And Minds

Hearts And Minds Guitar Tabs

Ivoryline - Hearts And Minds chords, tabs, tablatures, lyrics

Guitar lessons | Add/correct | Request | Top 50 tabs Artists:  A B C D E F G H I J K L M N O P Q R S T U V W X Y Z 0-9

Hearts And Minds Guitar Tabs – Ivoryline

CD, Sheet music, Poster

Do you like Hearts And Minds? Share with your friends now
Tabs
#------------------------------------------------------------------------------##

                                HEARTS AND MINDS 
                            As recorded by Ivoryline
                     (From the 2008 Album THERE CAME A LION)

Arranged by Andrew Cloer

Gtr I (Db Ab Db Gb Bb Eb) - 'Untitled'
Gtr II (Db Ab Db Gb Bb Eb) - 'Untitled'
Gtr III (Db Ab Db Gb Bb Eb) - 'Untitled'
Gtr IV (Db Ab Db Gb Bb Eb) - 'Untitled'
Gtr V (Db Ab Db Gb Bb Eb) - 'Untitled'
Gtr VI (Db Ab Db Gb Bb Eb) - 'Untitled'

  Q=154
 4/4
  Gtr I
  E E E E E E E E   E  E  E  E  E  E  E  E
|-----------------|------------------------|
|-----------------|------------------------|
|---6---6-9-9-9-9-|---11-11-11-13-13-13-13-|
|---x---x-x-x-x-x-|----x--x--x--x--x--x--x-|
|---4---4-7-7-7-7-|----9--9--9-11-11-11-11-|
|-----------------|------------------------|
|
| Gtr II
| E E E E E E E E   E  E  E  E  E  E  E  E
|-----------------|------------------------|
|-----------------|------------------------|
|-----------------|---11-11-11-13-13-13-13-|
|---4---4-4-4-4-4-|----x--x--x--x--x--x--x-|
|---4---4-4-4-4-4-|----9--9--9-11-11-11-11-|
|---4---4-4-4-4-4-|------------------------|


  E E E E E E E E   E E E E E E E E
|-----------------|------------------|
|-----------------|------------------|
|---9---9-9-6-6-7-|---6-6-6-4-4-4-4--|
|---x---x-x-x-x-x-|---x-x-x-x-x-x-x--|
|---7---7-7-4-4-5-|---4-4-4-2-2-2-2--|
|-----------------|------------------|
|
| E E E E E E E E   E E E E E E E E
|-----------------|------------------|
|-----------------|------------------|
|-----------------|---6-6-6-4-4-4-4--|
|---0---0-0-0-0-0-|---x-x-x-x-x-x-x--|
|---0---0-0-0-0-0-|---4-4-4-2-2-2-2--|
|---0---0-0-0-0-0-|------------------|


  E E E E E E E E   E  E  E  E  E  E  E  E   E E E E E E E E   E E E E E E E E
|-----------------|------------------------|-----------------|-----------------|
|-----------------|------------------------|-----------------|-----------------|
|---6---6-9-9-9-9-|---11-11-11-13-13-13-13-|---9---9-9-6-6-7-|---6-6-6-4-4-4-4-|
|---x---x-x-x-x-x-|----x--x--x--x--x--x--x-|---x---x-x-x-x-x-|---x-x-x-x-x-x-x-|
|---4---4-7-7-7-7-|----9--9--9-11-11-11-11-|---7---7-7-4-4-5-|---4-4-4-2-2-2-2-|
|-----------------|------------------------|-----------------|-----------------|
|
| E E E E E E E E   E  E  E  E  E  E  E  E   E E E E E E E E   E E E E E E E E
|-----------------|------------------------|-----------------|-----------------|
|-----------------|------------------------|-----------------|-----------------|
|-----------------|---11-11-11-13-13-13-13-|-----------------|---6-6-6-4-4-4-4-|
|---4---4-4-4-4-4-|----x--x--x--x--x--x--x-|---0---0-0-0-0-0-|---x-x-x-x-x-x-x-|
|---4---4-4-4-4-4-|----9--9--9-11-11-11-11-|---0---0-0-0-0-0-|---4-4-4-2-2-2-2-|
|---4---4-4-4-4-4-|------------------------|---0---0-0-0-0-0-|-----------------|


  $
  Gtr III
  PM------------------------------------------------------------------|
  E E E E E E E E   E E E E E E E E   E E E E E E E E   E E E E E E E E
|-----------------|-----------------|-----------------|-----------------|
|-----------------|-----------------|-----------------|-----------------|
|-6-6-6-6-6-6-6-6-|-4-4-4-4-7-7-7-7-|-----------------|-----------------|
|-7-7-7-7-7-7-7-7-|-6-6-6-6-9-9-9-9-|-4-4-4-4-4-4-4-4-|-4-4-4-2-4-4-2-2-|
|-----------------|-----------------|-5-5-5-5-5-5-5-5-|-5-5-5-5-5-5-5-5-|
|-----------------|-----------------|-----------------|-----------------|


  PM------------------------------------------------------------------|
  E E E E E E E E   E E E E E E E E   E E E E E E E E   E E E E E E E E
|-----------------|-----------------|-----------------|-----------------|
|-----------------|-----------------|-----------------|-----------------|
|-6-6-6-6-6-6-6-6-|-4-4-4-4-7-7-7-7-|-----------------|-----------------|
|-7-7-7-7-7-7-7-7-|-6-6-6-6-9-9-9-9-|-4-4-4-4-4-4-4-4-|-4-4-4-4-4-4-4-4-|
|-----------------|-----------------|-5-5-5-5-5-5-5-5-|-5-5-5-5-5-5-5-5-|
|-----------------|-----------------|-----------------|-----------------|
|
| Gtr IV
|                                                       PM------------|
| W                 W                 W                 E E E E E E E E
|-----------------|-----------------|-----------------|-----------------|
|-----------------|-----------------|-----------------|-----------------|
|-----------------|-----------------|-----------------|-----------------|
|-----------------|-----------------|-----------------|-4-4-4-4-4-4-4-4-|
|-----------------|-----------------|-----------------|-----------------|
|-----------------|-----------------|-----------------|-----------------|


  PM------------------------------------------------------------------|
  E E E E E E E E   E E E E E E E E   E E E E E E E E   E E E E E E E E
|-----------------|-----------------|-----------------|-----------------|
|-----------------|-----------------|-----------------|-----------------|
|-6-6-6-6-6-6-6-6-|-4-4-4-4-7-7-7-7-|-----------------|-----------------|
|-7-7-7-7-7-7-7-7-|-6-6-6-6-9-9-9-9-|-4-4-4-4-4-4-4-4-|-4-4-4-4-4-4-4-4-|
|-----------------|-----------------|-5-5-5-5-5-5-5-5-|-5-5-5-5-5-5-5-5-|
|-----------------|-----------------|-----------------|-----------------|
|
| PM------------------------------------------------------------------|
| E E E E E E E E   E E E E E E E E   E E E E E E E E   E E E E E E E E
|-----------------|-----------------|-----------------|-----------------|
|-7-7-7-7-7-7-7-7-|-5-5-5-5-5-5-5-5-|-2-2-2-2-2-2-2-2-|-3-3-3-3-3-3-3-3-|
|-----------------|-----------------|-----------------|-----------------|
|-----------------|-----------------|-----------------|-----------------|
|-----------------|-----------------|-----------------|-----------------|
|-----------------|-----------------|-----------------|-----------------|


                                                        Gtr I
                                                        <
  PM------------------------------------------------|
  E E E E E E E E   E E E E E E E E   E E E E E E E E   E E E E E E E E
|-----------------|-----------------|-----------------|-----------------|
|-----------------|-----------------|-----------------|-----------------|
|-6-6-6-6-6-6-6-6-|-4-4-4-4-7-7-7-7-|-----------------|-----------------|
|-7-7-7-7-7-7-7-7-|-6-6-6-6-9-9-9-9-|-4-4-4-4-4-4-4-4-|-4-4-4-4-4-4-4-4-|
|-----------------|-----------------|-5-5-5-5-5-5-5-5-|-5-5-5-5-5-5-5-5-|
|-----------------|-----------------|-----------------|-----------------|
|
|                                                       Gtr II
|                                                       <
| PM------------------------------------------------|
| E E E E E E E E   E E E E E E E E   E E E E E E E E   E E E E E E E E
|-----------------|-----------------|-----------------|-----------------|
|-----------------|-----------------|-----------------|-----------------|
|-2-2-2-2-2-2-2-2-|-4-4-4-4-7-7-7-7-|-----------------|-----------------|
|-----------------|-----------------|-4-4-4-4-4-4-4-4-|-4-4-4-4-4-4-4-4-|
|-----------------|-----------------|-----------------|-----------------|
|-----------------|-----------------|-----------------|-----------------|


   E E  E E  E E  E E   E +E    +E  E E E Q
|---------------------|-----------------------|
|-10-9----9-----------|-----------------------|
|------11---11-9-11-9-|-6-(6)b7r(6)-----------|
|---------------------|-------------7-9-7-----|
|---------------------|-------------------9---|
|---------------------|-----------------------|
|
|  E E  E E  E E  E E   E  E     E  E E E E E
|---------------------|-----------------------|
|---------------------|-----------------------|
|---------------------|-----------------------|
|--4-4--4-4--4-4--4-4-|-4--9-----9--9-9-9-9-9-|
|--4-4--4-4--4-4--4-4-|-4--9-----9--9-9-9-9-9-|
|--4-4--4-4--4-4--4-4-|-4-/9-----9--9-9-9-9-9-|


   E E  E E  E E  E E   E +E    +E  E E E Q
|---------------------|-----------------------|
|-10-9----9-----------|-----------------------|
|------11---11-9-11-9-|-6-(6)b7r(6)-----------|
|---------------------|-------------7-9-7-----|
|---------------------|-------------------9---|
|---------------------|-----------------------|
|
|  E E  E E  E E  E E   E  E     E  E E E E E
|---------------------|-----------------------|
|---------------------|-----------------------|
|---------------------|-----------------------|
|--7-7--7-7--7-7--7-7-|-7--2-----2--2-2-2-2-2-|
|--7-7--7-7--7-7--7-7-|-7--2-----2--2-2-2-2-2-|
|--7-7--7-7--7-7--7-7-|-7--2-----2--2-2-2-2-2-|


   E E  E E  E E  E E   E +E    +E  E E E Q
|---------------------|-----------------------|
|-10-9----9-----------|-----------------------|
|------11---11-9-11-9-|-6-(6)b7r(6)-----------|
|---------------------|-------------7-9-7-----|
|---------------------|-------------------9---|
|---------------------|-----------------------|
|
|  E E  E E  E E  E E   E  E     E  E E E E E
|---------------------|-----------------------|
|---------------------|-----------------------|
|---------------------|----9-----9--9-9-9-9-9-|
|--4-4--4-4--4-4--4-4-|-4--9-----9--9-9-9-9-9-|
|--4-4--4-4--4-4--4-4-|-4-/7-----7--7-7-7-7-7-|
|--4-4--4-4--4-4--4-4-|-4---------------------|


  Q   Q   Q   Q      Q     Q     H
|-----------------|-------------------------|
|-----------------|-------------------------|
|-----------------|--6-----9-----6----------|
|-4---6---7---9---|-------------------------|
|-----------------|-------------------------|
|-----------------|-------------------------|
|
| E E E E E E E E    E  E  E  E  E  E  E  E
|-----------------|-------------------------|
|-----------------|-------------------------|
|-----------------|-------------------------|
|-7-7-7-7-7-7-7-7-|-11-11-11-11-11-11-11-11-|
|-7-7-7-7-7-7-7-7-|-11-11-11-11-11-11-11-11-|
|-7-7-7-7-7-7-7-7-|-11-11-11-11-11-11-11-11-|


  E E E E E E E E   E  E  E  E  E  E  E  E   E E E E E E E E   E E E E E E E E
|-----------------|------------------------|-----------------|-----------------|
|-----------------|------------------------|-----------------|-----------------|
|---6---6-9-9-9-9-|---11-11-11-13-13-13-13-|---9---9-9-6-6-7-|---6-6-6-4-4-4-4-|
|---x---x-x-x-x-x-|----x--x--x--x--x--x--x-|---x---x-x-x-x-x-|---x-x-x-x-x-x-x-|
|---4---4-7-7-7-7-|----9--9--9-11-11-11-11-|---7---7-7-4-4-5-|---4-4-4-2-2-2-2-|
|-----------------|------------------------|-----------------|-----------------|
|
| E E E E E E E E   E  E  E  E  E  E  E  E   E E E E E E E E   E E E E E E E E
|-----------------|------------------------|-----------------|-----------------|
|-----------------|------------------------|-----------------|-----------------|
|-----------------|---11-11-11-13-13-13-13-|-----------------|---6-6-6-4-4-4-4-|
|---4---4-4-4-4-4-|----x--x--x--x--x--x--x-|---0---0-0-0-0-0-|---x-x-x-x-x-x-x-|
|---4---4-4-4-4-4-|----9--9--9-11-11-11-11-|---0---0-0-0-0-0-|---4-4-4-2-2-2-2-|
|---4---4-4-4-4-4-|------------------------|---0---0-0-0-0-0-|-----------------|


  E E E E E E E E   E  E  E  E  E  E  E  E
|-----------------|------------------------|
|-----------------|------------------------|
|---6---6-9-9-9-9-|---11-11-11-13-13-13-13-|
|---x---x-x-x-x-x-|----x--x--x--x--x--x--x-|
|---4---4-7-7-7-7-|----9--9--9-11-11-11-11-|
|-----------------|------------------------|
|
| E E E E E E E E   E  E  E  E  E  E  E  E
|-----------------|------------------------|
|-----------------|------------------------|
|-----------------|---11-11-11-13-13-13-13-|
|---4---4-4-4-4-4-|----x--x--x--x--x--x--x-|
|---4---4-4-4-4-4-|----9--9--9-11-11-11-11-|
|---4---4-4-4-4-4-|------------------------|


                                                D.S.
   E  E  E  E  E  E  E  E    E  E  E  E  E  E  E  E
|-------------------------|---------------------------|
|-------------------------|---------------------------|
|-14-14-14-14-13-13-13-13-|-14-14-14-14-13-13-13-13---|
|--x--x--x--x--x--x--x--x-|--x--x--x--x--x--x--x--x---|
|-12-12-12-12-11-11-11-11-|-12-12-12-12-11-11-11-11---|
|-------------------------|---------------------------|
|
|  E  E  E  E  E  E  E  E    E  E  E  E  E  E  E  E
|-------------------------|---------------------------|
|-------------------------|---------------------------|
|-11-11-11-11--9--9--9--9-|--6--6--6--6--9--9--9--9---|
|--x--x--x--x--x--x--x--x-|--x--x--x--x--x--x--x--x---|
|--9--9--9--9--7--7--7--7-|--4--4--4--4--7--7--7--7---|
|-------------------------|---------------------------|


  E E E E E E E E   E  E  E  E  E  E  E  E   E E E E E E E E   E E E E E E E E
|-----------------|------------------------|-----------------|-----------------|
|-----------------|------------------------|-----------------|-----------------|
|---6---6-9-9-9-9-|---11-11-11-13-13-13-13-|---9---9-9-6-6-7-|---6-6-6-4-4-4-4-|
|---x---x-x-x-x-x-|----x--x--x--x--x--x--x-|---x---x-x-x-x-x-|---x-x-x-x-x-x-x-|
|---4---4-7-7-7-7-|----9--9--9-11-11-11-11-|---7---7-7-4-4-5-|---4-4-4-2-2-2-2-|
|-----------------|------------------------|-----------------|-----------------|
|
| E E E E E E E E   E  E  E  E  E  E  E  E   E E E E E E E E   E E E E E E E E
|-----------------|------------------------|-----------------|-----------------|
|-----------------|------------------------|-----------------|-----------------|
|-----------------|---11-11-11-13-13-13-13-|-----------------|---6-6-6-4-4-4-4-|
|---4---4-4-4-4-4-|----x--x--x--x--x--x--x-|---0---0-0-0-0-0-|---x-x-x-x-x-x-x-|
|---4---4-4-4-4-4-|----9--9--9-11-11-11-11-|---0---0-0-0-0-0-|---4-4-4-2-2-2-2-|
|---4---4-4-4-4-4-|------------------------|---0---0-0-0-0-0-|-----------------|


  E E E E E E E E   E  E  E  E  E  E  E  E   E E E E E E E E   E E E E E E E E
|-----------------|------------------------|-----------------|-----------------|
|-----------------|------------------------|-----------------|-----------------|
|---6---6-9-9-9-9-|---11-11-11-13-13-13-13-|---9---9-9-6-6-7-|---6-6-6-4-4-4-4-|
|---x---x-x-x-x-x-|----x--x--x--x--x--x--x-|---x---x-x-x-x-x-|---x-x-x-x-x-x-x-|
|---4---4-7-7-7-7-|----9--9--9-11-11-11-11-|---7---7-7-4-4-5-|---4-4-4-2-2-2-2-|
|-----------------|------------------------|-----------------|-----------------|
|
| E E E E E E E E   E  E  E  E  E  E  E  E   E E E E E E E E   E E E E E E E E
|-----------------|------------------------|-----------------|-----------------|
|-----------------|------------------------|-----------------|-----------------|
|-----------------|---11-11-11-13-13-13-13-|-----------------|---6-6-6-4-4-4-4-|
|---4---4-4-4-4-4-|----x--x--x--x--x--x--x-|---0---0-0-0-0-0-|---x-x-x-x-x-x-x-|
|---4---4-4-4-4-4-|----9--9--9-11-11-11-11-|---0---0-0-0-0-0-|---4-4-4-2-2-2-2-|
|---4---4-4-4-4-4-|------------------------|---0---0-0-0-0-0-|-----------------|


  W             +W           W               +W
|-2-----------|-(2)--------|---------------|--------|
|-2-----------|-(2)--------|---------------|--------|
|-2-----------|-(2)--------|-2-------------|-(2)----|
|-4-----------|-(4)--------|-0-------------|-(0)----|
|-4-----------|-(4)--------|-0-------------|-(0)----|
|-4-----------|-(4)--------|-0-------------|-(0)----|
|
| H.      E E   +W           E E E E  H      +W
|-----------0-|-(0)--------|---------------|--------|
|---------2---|------------|---------------|--------|
|-------------|------------|---------------|--------|
|-------------|------------|-6h7p6---------|--------|
|-------------|------------|-------7-/9----|-(9)----|
|-------------|------------|---------------|--------|


  W                 +W           W           W
|-----------------|------------|-0--------|--0----|
|-----------------|------------|-0--------|--5----|
|-2---------------|-(2)--------|-2--------|--4----|
|-4---------------|-(4)--------|-0--------|--6----|
|-4---------------|-(4)--------|-0--------|-/7----|
|-4---------------|-(4)--------|-0--------|-------|
|
| E E E E  Q  E E   +W           W           W
|-----------------|------------|----------|-------|
|-----------------|------------|----------|-------|
|-------------7-6-|-(6)--------|----------|-------|
|-6h7p6-----------|------------|----------|-------|
|-------7-/9------|------------|----------|-------|
|-----------------|------------|----------|-------|


  PM
  H      Q.     E    +W            W                Q   Q  H
|-------14-----12-|-(12)--------|-12-------------|-10------9----|
|-----------------|-------------|----------------|------9-------|
|-----------------|-------------|----------------|--------------|
|-----------------|-------------|----------------|--------------|
|-----------------|-------------|----------------|--------------|
|-----------------|-------------|----------------|--------------|
|
| Q  H       E  E    +W            E E E E  H      +W
|---------------0-|--(0)--------|----------------|--------------|
|---------------0-|--(0)--------|----------------|--------------|
|----2----------2-|--(2)--------|----------------|--------------|
|-4----------4----|-------------|--6h7p6---------|--------------|
|-----------------|-------------|--------7-/9----|-(9)----------|
|-----------------|-------------|----------------|--------------|


   H        Q.     E    +W            W           Q  Q  E    +E  +E  +E
|----------14-----12-|-(12)--------|-12--------|-10-----9b10-(9)-(9)-(9)-|
|-10-----------------|-------------|-----------|-----9-------------------|
|--------------------|-------------|-----------|-------------------------|
|--------------------|-------------|-----------|-------------------------|
|--------------------|-------------|-----------|-------------------------|
|--------------------|-------------|-----------|-------------------------|
|
|  E E E E  Q   E  E    +W            W           W
|--------------------|-------------|-----------|-------------------------|
|--------------------|-------------|-----------|-------------------------|
|---------------7--6-|--(6)--------|--2--------|--4----------------------|
|--6h7p6-------------|-------------|--0--------|--6----------------------|
|--------7-/9--------|-------------|--0--------|-/7----------------------|
|--------------------|-------------|--0--------|-------------------------|


   H      Q.     E    +W            W                Q   Q  H
|-10-----14-----12-|-(12)--------|-12-------------|-10------9----|
|------------------|-------------|----------------|------9-------|
|------------------|-------------|----------------|--------------|
|------------------|-------------|----------------|--------------|
|------------------|-------------|----------------|--------------|
|------------------|-------------|----------------|--------------|
|
|  Q  H       E  E    +W            E E E E  H      +W
|----------------0-|--(0)--------|----------------|--------------|
|----------------0-|--(0)--------|----------------|--------------|
|-----2----------2-|--(2)--------|----------------|--------------|
|--4----------4----|-------------|--6h7p6---------|--------------|
|------------------|-------------|--------7-/9----|-(9)----------|
|------------------|-------------|----------------|--------------|


   H        Q.     E    +W            H     H       H    E    +E  +E  +E
|----------14-----12-|-(12)--------|-12----------|-10----9b10-(9)-(9)-(9)-|
|-10-----------------|-------------|-------10----|------------------------|
|--------------------|-------------|-------------|------------------------|
|--------------------|-------------|-------------|------------------------|
|--------------------|-------------|-------------|------------------------|
|--------------------|-------------|-------------|------------------------|
|
|  E E E E  Q   E  E    +W            W             W
|--------------------|-------------|-------------|------------------------|
|--------------------|-------------|-------------|------------------------|
|---------------7--6-|--(6)--------|--2----------|--4---------------------|
|--6h7p6-------------|-------------|--0----------|--6---------------------|
|--------7-/9--------|-------------|--0----------|-/7---------------------|
|--------------------|-------------|--0----------|------------------------|


   E E  E E  E E  E E   E +E    +E  E E E Q
|---------------------|----------------------|
|-10-9----9-----------|----------------------|
|------11---11-9-11-9-|-6-(6)b7r(6)----------|
|---------------------|-------------7-9-7----|
|---------------------|-------------------9--|
|---------------------|----------------------|


   E E  E E  E E  E E   E +E    +E  E E E Q
|---------------------|----------------------|
|-10-9----9-----------|----------------------|
|------11---11-9-11-9-|-6-(6)b7r(6)----------|
|---------------------|-------------7-9-7----|
|---------------------|-------------------9--|
|---------------------|----------------------|


   E E  E E  E E  E E   E +E    +E  E E E Q    Q  Q  Q  Q    Q  Q  H
|---------------------|----------------------|-------------|------------|
|-10-9----9-----------|----------------------|-------------|------------|
|------11---11-9-11-9-|-6-(6)b7r(6)----------|-------------|-6--9--6----|
|---------------------|-------------7-9-7----|-4--6--7--9--|------------|
|---------------------|-------------------9--|-------------|------------|
|---------------------|----------------------|-------------|------------|


  Gtr V
  E E E E E E E E   E  E  E  E  E  E  E  E   W                 H       E E E E
|-----------------|------------------------|-----------------|-----------------|
|-----------------|------------------------|-----------------|-----------------|
|---6---6-9-9-9-9-|---11-11-11-13-13-13-13-|-----------------|-----------------|
|---x---x-x-x-x-x-|----x--x--x--x--x--x--x-|-----------------|---------9-9-9-9-|
|---4---4-7-7-7-7-|----9--9--9-11-11-11-11-|-----------------|---------9-9-9-9-|
|-----------------|------------------------|-----------------|---------9-9-9-9-|
|
| Gtr VI
| W                 W                        E E E E E E E E   E E E E E E E E
|-----------------|------------------------|-----------------|-----------------|
|-----------------|------------------------|-----------------|-----------------|
|-----------------|------------------------|---9---9-9-6-6-7-|---6-6-6-4-4-4-4-|
|-----------------|------------------------|---x---x-x-x-x-x-|---x-x-x-x-x-x-x-|
|-----------------|------------------------|---7---7-7-4-4-5-|---4-4-4-2-2-2-2-|
|-----------------|------------------------|-----------------|-----------------|


  Gtr I
  E E E E E E E E   E  E  E  E  E  E  E  E   E E E E E E E E   E E E E E E E E
|-----------------|------------------------|-----------------|-----------------|
|-----------------|------------------------|-----------------|-----------------|
|---6---6-9-9-9-9-|---11-11-11-13-13-13-13-|---9---9-9-6-6-7-|---6-6-6-4-4-4-4-|
|---x---x-x-x-x-x-|----x--x--x--x--x--x--x-|---x---x-x-x-x-x-|---x-x-x-x-x-x-x-|
|---4---4-7-7-7-7-|----9--9--9-11-11-11-11-|---7---7-7-4-4-5-|---4-4-4-2-2-2-2-|
|-----------------|------------------------|-----------------|-----------------|
|
| Gtr II
| E E E E E E E E   E  E  E  E  E  E  E  E   E E E E E E E E   E E E E E E E E
|-----------------|------------------------|-----------------|-----------------|
|-----------------|------------------------|-----------------|-----------------|
|-----------------|---11-11-11-13-13-13-13-|-----------------|---6-6-6-4-4-4-4-|
|---4---4-4-4-4-4-|----x--x--x--x--x--x--x-|---0---0-0-0-0-0-|---x-x-x-x-x-x-x-|
|---4---4-4-4-4-4-|----9--9--9-11-11-11-11-|---0---0-0-0-0-0-|---4-4-4-2-2-2-2-|
|---4---4-4-4-4-4-|------------------------|---0---0-0-0-0-0-|-----------------|


  E E E E E E  E E   E E E E  E  E  E  E   E E E E E E E E   E E E E E E E E
|-9-9-9-9-9-9--9-9-|-7-7-7-7-12-12-12-12-|-5-5-5-5-5-5-5-5-|-9-9-9-9-4-4-4-4-|
|------------------|---------------------|-----------------|-----------------|
|------------------|---------------------|-----------------|-----------------|
|------------------|---------------------|-----------------|-----------------|
|------------------|---------------------|-----------------|-----------------|
|------------------|---------------------|-----------------|-----------------|
|
| E E E E E Q.       E E E Q     E  E  E   E E E E E E E E   E E E E E E Q
|------------------|---------------------|-----------------|-----------------|
|------------------|---------------------|-----------------|-----------------|
|------------------|---------------------|-----------------|-----------------|
|-4-4-4-4-4--------|---4-4-------4--4----|-0-0-0-7-7-7-7-2-|-2-2-2-9-9-9-9---|
|-4-4-4-4-4--------|---4-4-------4--4----|-0-0-0-7-7-7-7-2-|-2-2-2-9-9-9-9---|
|-4-4-4-4-4--------|---4-4-------4--4----|-0-0-0-7-7-7-7-2-|-2-2-2-9-9-9-9---|


  Gtr I
  E E E E E E  E E   E E E E  E  E  E  E
|-9-9-9-9-9-9--9-9-|-7-7-7-7-12-12-12-12-|
|------------------|---------------------|
|------------------|---------------------|
|------------------|---------------------|
|------------------|---------------------|
|------------------|---------------------|
|
| Gtr II
| E E E E E Q.       E E E Q     E  E  E
|------------------|---------------------|
|------------------|---------------------|
|------------------|---------------------|
|-4-4-4-4-4--------|---4-4-------4--4----|
|-4-4-4-4-4--------|---4-4-------4--4----|
|-4-4-4-4-4--------|---4-4-------4--4----|


   E  E  E  E  E  E  E  E    E     E  E  E  E  E  E  E
|-14-14-14-14-14-14-14-14-|-14b15-14-14-14-14-14-14-14-|
|-------------------------|----------------------------|
|-------------------------|----------------------------|
|-------------------------|----------------------------|
|-------------------------|----------------------------|
|-------------------------|----------------------------|
|
|  E  E  E  E  E  E  E  E    E     E  E  E  E  E  Q
|-------------------------|----------------------------|
|-------------------------|----------------------------|
|-------------------------|----------------------------|
|--0--0--0--7--7--7--7--2-|--2-----2--2--9--9--9--9----|
|--0--0--0--7--7--7--7--2-|--2-----2--2--9--9--9--9----|
|--0--0--0--7--7--7--7--2-|--2-----2--2--9--9--9--9----|


  E E E E E E  E E   E E E Q  E E E   E E E E E E E E   E E E E E E Q
|------------------|----------------|-----------------|----------------|
|------------------|----------------|-----------------|----------------|
|-6-6-6-6-6-6--6-6-|-6-6-6----6-6---|-----------------|----------------|
|-x-x-x-x-x-x--x-x-|-x-x-x----x-x---|-0-0-0-7-7-7-7-2-|-2-2-2-9-9-9-9--|
|-4-4-4-4-4-4--4-4-|-4-4-4----4-4---|-0-0-0-7-7-7-7-2-|-2-2-2-9-9-9-9--|
|------------------|----------------|-0-0-0-7-7-7-7-2-|-2-2-2-9-9-9-9--|
|
| E E E E E Q.       E E E Q  E E E   E E E E E E E E   E E E E E E Q
|------------------|----------------|-----------------|----------------|
|------------------|----------------|-----------------|----------------|
|------------------|----------------|-----------------|----------------|
|-4-4-4-4-4--------|---4-4----4-4---|-0-0-0-7-7-7-7-2-|-2-2-2-9-9-9-9--|
|-4-4-4-4-4--------|---4-4----4-4---|-0-0-0-7-7-7-7-2-|-2-2-2-9-9-9-9--|
|-4-4-4-4-4--------|---4-4----4-4---|-0-0-0-7-7-7-7-2-|-2-2-2-9-9-9-9--|


  E E E E E E  E E   E E E Q  E E E   E E E E E E E E   E E E E H
|------------------|----------------|-----------------|--------------|
|------------------|----------------|-----------------|--------------|
|-6-6-6-6-6-6--6-6-|-6-6-6----6-6---|-----------------|--------------|
|-x-x-x-x-x-x--x-x-|-x-x-x----x-x---|-0-0-0-7-7-7-7-2-|-2-2-2-9-9----|
|-4-4-4-4-4-4--4-4-|-4-4-4----4-4---|-0-0-0-7-7-7-7-2-|-2-2-2-9-9----|
|------------------|----------------|-0-0-0-7-7-7-7-2-|-2-2-2-9-9----|
|
| E E E E E Q.       E E E Q  E E E   E E E E E E E E   E E E E H
|------------------|----------------|-----------------|--------------|
|------------------|----------------|-----------------|--------------|
|------------------|----------------|-----------------|--------------|
|-4-4-4-4-4--------|---4-4----4-4---|-0-0-0-7-7-7-7-2-|-2-2-2-9-9----|
|-4-4-4-4-4--------|---4-4----4-4---|-0-0-0-7-7-7-7-2-|-2-2-2-9-9----|
|-4-4-4-4-4--------|---4-4----4-4---|-0-0-0-7-7-7-7-2-|-2-2-2-9-9----|


   >
  +W           +W           +W           +W
|------------|------------|------------|--------*|
|------------|------------|------------|--------*|
|------------|------------|------------|--------*|
|-(9)--------|-(9)--------|-(9)--------|-(9)----*|
|-(9)--------|-(9)--------|-(9)--------|-(9)----*|
|-(9)--------|-(9)--------|-(9)--------|-(9)----*|
|
|  >
| +W           +W           +W           +W
|------------|------------|------------|--------*|
|------------|------------|------------|--------*|
|------------|------------|------------|--------*|
|-(9)--------|-(9)--------|-(9)--------|-(9)----*|
|-(9)--------|-(9)--------|-(9)--------|-(9)----*|
|-(9)--------|-(9)--------|-(9)--------|-(9)----*|


Duration Legend
---------------
W - whole; H - half; Q - quarter; E - 8th; S - 16th; T - 32nd; X - 64th; a - acciaccatura
+ - note tied to previous; . - note dotted; .. - note double dotted
Uncapitalized letters represent notes that are staccato (1/2 duration)
Irregular groupings are notated above the duration line
Duration letters will always appear directly above the note/fret number it represents the
duration for.  Duration letters with no fret number below them represent rests.  Multi-
bar rests are notated in the form Wxn, where n is the number of bars to rest for.  Low
melody durations appear below the staff

Tablature Legend
----------------
 h   - hammer-on
 p   - pull-off
 b   - bend
 pb  - pre-bend
 r   - bend release (if no number after the r, then release immediately)
 /\  - slide into or out of (from/to "nowhere")
 s   - legato slide
 S   - shift slide
  - natural harmonic
[n]  - artificial harmonic
n(n) - tapped harmonic
 ~   - vibrato
 tr  - trill
 T   - tap
 TP  - trem. picking
 PM  - palm muting
\n/  - tremolo bar dip; n = amount to dip
 \n  - tremolo bar down
 n/  - tremolo bar up
/n\  - tremolo bar inverted dip
 =   - hold bend; also acts as connecting device for hammers/pulls
 <>  - volume swell (louder/softer)
 x   - on rhythm slash represents muted slash
 o   - on rhythm slash represents single note slash

Misc Legend
-----------
 |  - bar
||  - double bar
||o - repeat start
o|| - repeat end
*|  - double bar (ending)
 :  - bar (freetime)
 $  - Segno
 &  - Coda
Tempo markers -  = BPM(8/16=s8/s16), where s8 = swing 8ths, s16 = swing 16ths


***************************************************************************************
***************************************************************************************





Comments


Popular Ivoryline tabs & chords
All You Ever Hear Bass Tabs
Days End Bass Tabs
Vessels Bass Tabs
All You Ever Hear Tabs
Be Still And Breathe Tabs
Instincts Tabs
Parade Tabs
Remind Me I'm Alive Tabs
The Last Words Tabs
Vessels Tabs


Song lyrics



↑ Back to top | Tablatures and chords are parodies/interpretations of the original songs. You may use it for private study, scholarship, research or language learning purposes only
© 2014 AZChords.com Contact us | Privacy policy | DMCA | Add/correct tabs | Request tabs | Top 50 tabs