» » »

Days End Bass tabs (ver.1)

Artists:  A B C D E F G H I J K L M N O P Q R S T U V W X Y Z # 

Days End Bass tabs (ver.1)

Ivoryline
Rating:
3/5 (3 votes)

Hard to play? Try these video lessons and learn fast.
                this is an awesome song by ivoryline.its really easy. this is the whole song on bass. enjoy.


Intro (Just guitar, but here are the notes if u want them)

G--------------------------------------|
D--------------------------------------|
A---4--44-4---2--2---0--00-0---4--4----|
E--------------------------------------|

Intro 2/Chorus/Outro (this is when the whole band starts playing)

G----------------------------+--------------------------------+--------------------|
D----------------------------+--------------------------------+--------------------|
A-----444--7777---222222222--+-----444--7777---000000000--222-+----444--7777-------|
E----------------------------+--------------------------------+--------------------|

-------------------------------|
-------------------------------|
222222222----------------------|
-------444445555555------------|

Verses

G----------------------------------+------------------------------|
D----------------------------------+------------------------------|
A---4444444--222222----------------+---444444--666666-------------|
E-------------------2222222222-----+------------------555555555---|

Bridge

First Time

G---------------------------------------------|
D---------------------------------------------|
A----00--000-0000---222222222----4-------4----|
E---------------------------------------------|

Second Time
G-----------------------------------------------|
D-----------------------------------------------|
A----00--000-0000---222222222---99999---77777---|
E-----------------------------------------------|

Third Time

G---------------------------------------------|
D---------------------------------------------|
A----00--000-0000---222222222----4-------4----|
E---------------------------------------------|

Fourth Time

G-----------------------------------------------|
D-----------------------------------------------|
A----00--000-0000---222222222---99999---77777---|
E-----------------------------------------------|

Guitar Phaser bit

(The bass plays these notes while the guitar plays the melody)

G----------------------------------------------|
D----------------------------------------------|
A----4-----------------------------------------|
E-------------5------------2-------------------|

Outro (same as chorus)

Song Structure:

Guitar Intro
Band Intro
Verse 1
Chorus
Verse 2
Chorus
Bridge
Climax (Guitar Phaser Part)
Chorus
Outro
            
Hard to play? Try these video lessons and learn fast. | Correct




comments powered by Disqus
↑ Back to top | Tablatures and chords are parodies/interpretations of the original songs. You may use it for private study, scholarship, research or language learning purposes only