» » »

Be Still And Breathe Tabs (ver.1)

Artists:  A B C D E F G H I J K L M N O P Q R S T U V W X Y Z # 

Be Still And Breathe Tabs (ver.1)

Ivoryline
Rating:
5/5 (2 votes)

Tabs too difficult? Try these video lessons and learn fast.
                -------------------------------------------------------------------------------
-------------------------------------------------------------------------------

Tuning: Standard (I have a floating trem bridge = no drop-d for me)

This is such an awesome song!
I can't tell what the rhythm guitarist is playing during the verses through 
my speakers.
If you know or find out, or if there is anything else I am missing, send me
an email ;) To me it just sounds like Eb...

Turn up the gain/overdrive, use bridge pick up and rock with Ivoryline!

TIP: Listen to the verses, there is a mix of verse pt1 and pt2 played by the
same guitarist. :)

Verse pt1:
Need some delay (dotted eigth? and tap tempo.)
e|-----------9---------------9-----------------------------------------------|
B|-----------------------------12~-------------------------------------------|
G|--11-10-11---8~---11-10-11-------------------------------------------------|
D|---------------------------------------------------------------------------|
A|---------------------------------------------------------------------------|
E|---------------------------------------------------------------------------|

Verse pt2:
Did you hear me call your name?...
e|--------------------------------------------------------14-----------------|
B|--11-----------------------11-----------------------16------16~------------|
G|--------10----11-----------------10-----11-----11/15--15--15---------------|
D|--------------------11-----------------------------------------------------|
A|---------------------------------------------------------------------------|
E|---------------------------------------------------------------------------|

Pre-Chorus:
But I was screaming...
e|---------------------------------------------------------------------------|
B|---------------------------------------------------------------------------|
G|--8-8-8~---8-8-8-----------------------------------------------------------|
D|--8-8-8~---8-8-8-----------------------------------------------------------|
A|--6-6-6~---6-6-6-----------------------------------------------------------|
E|---------------------------------------------------------------------------|

Chorus pt1:
Everything they said about you...
e|---------------------------------------------------------------------------|
B|---------------------------------------------------------------------------|
G|--4444444444444444-6666666666666666----------------------------------------|
D|--4444444444444444-6666666666666666----------------------------------------|
A|--2222222222222222-4444444444444444----------------------------------------|
E|---------------------------------------------------------------------------|

Chorus pt2:
The outside doesn't feel, what the inside knows is real...
e|---------------------------------------------------------------------------|
B|---------------------------------------------------------------------------|
G|--8---11111010--6666/8-----8---10101111--6666\3-------8-8-8~---------------|
D|------------------------------------------------------8-8-8~---------------|
A|--6---9-9-8-8---4444/6-----6---8-8-9-9---4444\1-------6-6-6~---------------|
E|---------------------------------------------------------------------------|

Bridge:
Just walk away and save anything you can...
e|---------------------------------------------------------------------------|
B|---------------------------------------------------------------------------|
G|--88888888---11111111------------------------------------------------------|
D|--88888888x2-11111111x2-66666666---99999999--------------------------------|
A|--66666666---99999999---66666666x2-99999999x2------------------------------|
E|------------------------44444444---77777777--------------------------------|

Random pinch harmonic:
This is played through various parts of the chorus, but may require a second
guitarist.
e|---------------------------------------------------------------------------|
B|--+9br---------------------------------------------------------------------|
G|---------------------------------------------------------------------------|
D|---------------------------------------------------------------------------|
A|---------------------------------------------------------------------------|
E|---------------------------------------------------------------------------|

End Bend: lol rhymes
e|---------------------------------------------------------------------------|
B|--6------------------------------------------------------------------------|
G|--8b11---------------------------------------------------------------------|
D|---------------------------------------------------------------------------|
A|---------------------------------------------------------------------------|
E|---------------------------------------------------------------------------|


************************************

| /   slide up
| \   slide down
| h   hammer-on
| p   pull-off
| ~   vibrato
| +   harmonic
| x   Mute note
| b   Bend
| pb  Pre-bend
| br  Bend release
| pbr Pre-bend release
| brb Bend release bend

************************************
            
Tabs too difficult? Try these video lessons and learn fast.




comments powered by Disqus
↑ Back to top | Tablatures and chords are parodies/interpretations of the original songs. You may use it for private study, scholarship, research or language learning purposes only