>
 >
All You Ever Hear

All You Ever Hear Guitar Tabs

Ivoryline - All You Ever Hear chords, tabs, tablatures, lyrics

Guitar lessons | Add/correct | Request | Top 50 tabs Artists:  A B C D E F G H I J K L M N O P Q R S T U V W X Y Z 0-9

All You Ever Hear Guitar Tabs – Ivoryline

CD, Sheet music, Poster

Do you like All You Ever Hear? Share with your friends now
Bass TabsTabs
	All You Ever Hear
	
Genre: Rock
Info:
 ^ | Bend
 ~ | Vibrato
 / | Slide Onto
 . | Palm Mute
 x | Fret Mute

_______________________________________________________________________________
Guitar 1:
(DbAbDbGbBbeb)

	Intro:
	
eb|-----------------------------------------------------------------------------------|
Bb|-----------------------------------------8-8-8-8-7-7-7-7-10---10-10-10-10-10-10-10-|
Gb|---------------6---6-6/7-7-7-7-9-9-9-9-9-------------------------------------------|
Db|-7-7-7-7-9-9-9---------------------------------------------------------------------|
Ab|-7-7-7-7---------------------------------------------------------------------------|
Db|-7-7-7-7---------------------------------------------------------------------------|
  |         . . . .   . . . . . . . . . . . . . . . . . . . .    .  .  .  .  .  .  .  |
  |                            Half Palm Mutes
  |
eb|---------------------------------------------------------------------------|
Bb|---------------------------------8-8-8-8-7-7-7-7-10---10-10-10-10-10-10-10-|
Gb|-------6---6-6/7-7-7-7-9-9-9-9-9-------------------------------------------|
Db|-9-9-9---------------------------------------------------------------------|
Ab|---------------------------------------------------------------------------|
Db|---------------------------------------------------------------------------|
  | . . . .   . . . . . . . . . . . . . . . . . . . .    .  .  .  .  .  .  .  |
                               Half Palm Mutes

	Verse:

eb|-------------------------------------------------------------|
Bb|-------------------------------------------------------------|
Gb|-----------------x-x-x---x-x-x-----------------x-x-x-x-------|
Db|-9--9--7-/9--9---x-x-x---x-x-x-9--9xx7-/9--9---x-x-x-x-5-5-5-|
Ab|-9--9--7-/9--9---x-x-x---x-x-x-9--9xx7-/9--9---x-x-x-x-5-5-5-|
Db|-9--9--7-/9--9-----------------9--9xx7-/9--9-----------5-5-5-|
  |
eb|-------------------------------------------------------------|
Bb|-------------------------------------------------------------|
Gb|-----------------x-x-x---x-x-x-----------------x-x-x-x-7-7-7-|
Db|-9--9xx7-9-7-9---x-x-x---x-x-x-9--9--7-9-7-9---x-x-x-x-7-7-7-|
Ab|-9--9xx7-9-7-9---x-x-x---x-x-x-9--9xx7-9-7-9---x-x-x-x-5-5-5-|
Db|-9--9xx7-9-7-9-----------------9--9xx7-9-7-9-----------------|
  |
eb|-------------------------------------------------9---9---9^--|
Bb|-7-8-7--------0--------------------------------0---0---0-----|
Gb|-------7-6-7--7----------------------------------------------|
Db|-------------------------------------------------------------|
Ab|-------------------------------------------------------------|
Db|-------------------------------------------------------------|
  |                                               .   .   .   . |
  |
eb|---------------------------------5---5---5---9---9---9---9---|
Bb|-7-8-7--------0----------------0---0---0---0---0---0---0---0-|
Gb|-------7-6-7--7----------------------------------------------|
Db|-------------------------------------------------------------|
Ab|-------------------------------------------------------------|
Db|-------------------------------------------------------------|

	Bridge:
	
> Clean with Delay
eb|-----------------------------------------------------------------|
Bb|-----------------------------------------------------------------|
Gb|-4---4---4-4-4-6---6-6---6-6-6-6--/7-7---7-7-7-11--119-9-7-7-6-6-|
Db|-7---7---7-7-7-7---7-7---7-7-7-7--/7-7---7-7-7-x---x-x-x-x-x-x-x-|
Ab|-5---5---5-5-5-4---4-4---4-4-4-4--/5-5---5-5-5-9---9-7-7-5-5-4-4-|
Db|-----------------------------------------------------------------|
  |
eb|-------------------------------------------------|
Bb|-------------------------------------------------|
Gb|-4---4---4-4-4-6---6-6---6-6-6-6--/7-7---7-7-7---|
Db|-7---7---7-7-7-7---7-7---7-7-7-7--/7-7---7-7-7---|
Ab|-5---5---5-5-5-4---4-4---4-4-4-4--/5-5---5-5-5---|
Db|-------------------------------------------------|
  |
> Distortion
eb|---------------------|
Bb|-10---10-8-8-7-7-----|
Gb|-----------------9-9-|
Db|---------------------|
Ab|---------------------|
Db|---------------------|

	Chorus:

eb|-------------------------------------------------------------|
Bb|---10-----7---------7-8-7-------10-------10---10-8-8-7-7-----|
Gb|-7------7---9---7-9-------9-7-7------7-7-----------------9-9-|
Db|-------------------------------------------------------------|
Ab|-------------------------------------------------------------|
Db|-------------------------------------------------------------|
  |
eb|-------------------------------------------------------------|
Bb|---10-----7---------7-8-7-------10-------10---10-8-8-7-7-----|
Gb|-7------7---9---7-9-------9-7-7------7-7-----------------9-9-|
Db|-------------------------------------------------------------|
Ab|-------------------------------------------------------------|
Db|-------------------------------------------------------------|
  |
eb|-----------------------------------------------------------------|
Bb|-----------------------------------------------------------------|
Gb|-4---4---4-4-4/9-9-9-9/6-6-6-6/111111111111111111--119-9-7-7-6-6-|
Db|-7---7---7-7-7/x-x-x-x/7-7-7-7/x-x-x-x-x-x-x-x-x---x-x-x-x-x-x-x-|
Ab|-5---5---5-5-5/7-7-7-7/4-4-4-4/9-9-9-9-9-9-9-9-9---9-7-7-5-5-4-4-|
Db|-----------------------------------------------------------------|
  |
eb|-----------------------------------------------------------------|
Bb|-----------------------------------------------------------------|
Gb|-4---4---4-4-4/9-9-9-9/6-6-6-6/4-4-4-4-4-4-4-4-4---4-4---4-4-4-4-|
Db|-7---7---7-7-7/x-x-x-x/7-7-7-7/7-7-7-7-7-7-7-7-7---7-7---7-7-7-7-|
Ab|-5---5---5-5-5/7-7-7-7/4-4-4-4/5-5-5-5-5-5-5-5-5---5-5---5-5-5-5-|
Db|-----------------------------------------------------------------|

	Verse:

eb|-------------------------------------------------------------|
Bb|-------------------------------------------------------------|
Gb|-----------------x-x-x---x-x-x-----------------x-x-x-x-6^----|
Db|-9--9xx7-9-7-9---x-x-x---x-x-x-9--9xx7-9-7-9---x-x-x-x-------|
Ab|-9--9xx7-9-7-9---x-x-x---x-x-x-9--9xx7-9-7-9---x-x-x-x-------|
Db|-9--9xx7-9-7-9-----------------9--9xx7-9-7-9-----------------|
  |
eb|-------------------------------------------------------------|
Bb|-------------------------------------------------------------|
Gb|-----------------x-x-x-x-x-x-x-44444-4-4-4-4-4-4-4-4-4-7-7-7-|
Db|-9--9xx7-9-7-9---x-x-x-x-x-x-x-------------------------7-7-7-|
Ab|-9--9xx7-9-7-9---x-x-x-x-x-x-x-------------------------5-5-5-|
Db|-9--9xx7-9-7-9-----------------------------------------------|
  |                               ..... . . . . . . . . .       |
  |
eb|-------------------2---2---2---2---2---5---5---5---5---9---9---9---9^-|
Bb|-7-8-7---------------0---0---0---0---0---0---0---0---0---0---0---0----|
Gb|-------7-6-7-6-7------------------------------------------------------|
Db|----------------------------------------------------------------------|
Ab|----------------------------------------------------------------------|
Db|----------------------------------------------------------------------|
  |                   . . . . . . . . . . . . . . . . . . . . . . . .    |
  |
eb|-------------------2---2---2---2---2---5---5---5---5---9---9---9---9^-|
Bb|-7-8-7---------------0---0---0---0---0---0---0---0---0---0---0---0----|
Gb|-------7-6-7-6-7------------------------------------------------------|
Db|----------------------------------------------------------------------|
Ab|----------------------------------------------------------------------|
Db|----------------------------------------------------------------------|
  |                   . . . . . . . . . . . . . . . . . . . . . . . .    |
  
	Bridge:
	
> Clean with Delay
eb|-----------------------------------------------------------------|
Bb|-----------------------------------------------------------------|
Gb|-4---4---4-4-4-6---6-6---6-6-6-6--/7-7---7-7-7-11--119-9-7-7-6-6-|
Db|-7---7---7-7-7-7---7-7---7-7-7-7--/7-7---7-7-7-x---x-x-x-x-x-x-x-|
Ab|-5---5---5-5-5-4---4-4---4-4-4-4--/5-5---5-5-5-9---9-7-7-5-5-4-4-|
Db|-----------------------------------------------------------------|
  |
eb|-----------------------------------|
Bb|-----------------------------------|
Gb|-4---4---4-4-4-6---6-6---6-6-6-6---|
Db|-7---7---7-7-7-7---7-7---7-7-7-7---|
Ab|-5---5---5-5-5-4---4-4---4-4-4-4---|
Db|-----------------------------------|
  |
> Distortion
eb|-----------------------------------|
Bb|-----------------------------------|
Gb|-----------------------------------|
Db|-9-9-9-9-9-9-9-9-9-4-4-4-4-4-4-4-4-|
Ab|-9-9-9-9-9-9-9-9-9-----------------|
Db|-9-9-9-9-9-9-9-9-9-----------------|
  | . . . . . . . . .                 |

	Chorus:

eb|-------------------------------------------------------------|
Bb|---10-----7---------7-8-7-------10-------10---10-8-8-7-7-----|
Gb|-7------7---9---7-9-------9-7-7------7-7-----------------9-9-|
Db|-------------------------------------------------------------|
Ab|-------------------------------------------------------------|
Db|-------------------------------------------------------------|
  |
eb|-------------------------------------------------------------|
Bb|---10-----7---------7-8-7-------10-------10---10-8-8-7-7-----|
Gb|-7------7---9---7-9-------9-7-7------7-7-----------------9-9-|
Db|-------------------------------------------------------------|
Ab|-------------------------------------------------------------|
Db|-------------------------------------------------------------|
  |
eb|---------------------------------------------------------|
Bb|---------------------------------------------------------|
Gb|-4---4---4-4-4/9-9-9-9/6-6-6-6/--------------------------|
Db|-7---7---7-7-7/x-x-x-x/7-7-7-7/9---9---9-9-9---9---9-9-9-|
Ab|-5---5---5-5-5/7-7-7-7/4-4-4-4/9---9---9-9-9---9---9-9-9-|
Db|-------------------------------9---9---9-9-9---9---9-9-9-|
  |                               .           .             |
  |
eb|-----------------------------------------------------------|
Bb|---------------------------------------10------------------|
Gb|-4---4---4-4-4/9-9-9-9/6-6-6-6/--------9-------------------|
Db|-7---7---7-7-7/x-x-x-x/7-7-7-7/11--12--9-------------------|
Ab|-5---5---5-5-5/7-7-7-7/4-4-4-4/11--12--9-------------------|
Db|-------------------------------11--12--9-------------------|
  |                               .   .                       |
  
	Interlude:

> Clean with Delay
eb|-----------------------------------------------------|
Bb|-----------------------------------------------------|
Gb|-9---9---9-9-9-10--1010--1010104---4---4-4-4---4-4-4-|
Db|-x---x---x-x-x-x---x-x---x-x-x-7---7---7-7-7---7-7-7-|
Ab|-7---7---7-7-7-9---9-9---9-9-9-5---5---5-5-5---5-5-5-|
Db|-----------------------------------------------------|
  |
> Distortion
eb|-------5-------------------5------------------------|
Bb|-------x-------------------x---10-------------------|
Gb|-6-6-6-7-------------6-6-6-7--/12-------------6-6-6-|
Db|-7-7-7-7-------------7-7-7-7--/12-------------7-7-7-|
Ab|-4-4-4-5-------------4-4-4-5--/10-------------4-4-4-|
Db|----------------------------------------------------|
  |
eb|---------------------------------------------------------------|
Bb|---------------------------------------------------------------|
Gb|-4---44---4---4---4---4---6-6-6-4---44---4---4---4---4---6-6-6-|
Db|-7---77---7---7---7---7---7-7-7-7---77---7---7---7---7---7-7-7-|
Ab|-5---55---5---5---5---5---4-4-4-5---55---5---5---5---5---4-4-4-|
Db|---------------------------------------------------------------|
  |
eb|--------5---5---5---5---5--------------5---5---5---5---5-------|
Bb|-0----0---0---0---0---0---5-5-5-0----0---0---0---0---0---5-5-5-|
Gb|---------------------------------------------------------------|
Db|---------------------------------------------------------------|
Ab|---------------------------------------------------------------|
Db|---------------------------------------------------------------|
  |
eb|---------------------------------------------------------------|
Bb|---------------------------------------------------------------|
Gb|-4---44---4---4---4---4---6-6-6-4---44---4---4---4---4---6-6-6-|
Db|-7---77---7---7---7---7---7-7-7-7---77---7---7---7---7---7-7-7-|
Ab|-5---55---5---5---5---5---4-4-4-5---55---5---5---5---5---4-4-4-|
Db|---------------------------------------------------------------|
  |
eb|--------5---5---5---5---5--------------5---5---5---5---5-------|
Bb|-0----0---0---0---0---0---5-5-5-0----0---0---0---0---0---5-5-5-|
Gb|---------------------------------------------------------------|
Db|---------------------------------------------------------------|
Ab|---------------------------------------------------------------|
Db|---------------------------------------------------------------|
  |
> Distortion with Wah
eb|---------------------------------------------------10---10-9-9-7-7-------|
Bb|-----10-----10-----------7-8-7-------7-----10----------------------10-10-|
Gb|-----------------9---9-9-------9-7---------------------------------------|
Db|-9--------9----9-------------------9---9---------9-----------------------|
Ab|-------------------------------------------------------------------------|
Db|-------------------------------------------------------------------------|

	Chorus:

eb|-------------------------------------------------------------|
Bb|---10-----7---------7-8-7-------10-------10---10-8-8-7-7-----|
Gb|-7------7---9---7-9-------9-7-7------7-7-----------------9-9-|
Db|-------------------------------------------------------------|
Ab|-------------------------------------------------------------|
Db|-------------------------------------------------------------|
  |
eb|-------------------------------------------------------------------|
Bb|---10-----7---------7-8-7-------10---------------------------------|
Gb|-7------7---9---7-9-------9-7-7------7-7-11---11-11-11-11-11-11-11-|
Db|-----------------------------------------x----x--x--x--x--x--x--x--|
Ab|-----------------------------------------9----9--9--9--9--9--9--9--|
Db|-------------------------------------------------------------------|
  |
eb|-----------------------------------------------------------------|
Bb|-----------------------------------------------------------------|
Gb|-4---4---4-4-4/9-9-9-9/6-6-6-6/111111111111111111--119-9-7-7-6-6-|
Db|-7---7---7-7-7/x-x-x-x/7-7-7-7/x-x-x-x-x-x-x-x-x---x-x-x-x-x-x-x-|
Ab|-5---5---5-5-5/7-7-7-7/4-4-4-4/9-9-9-9-9-9-9-9-9---9-7-7-5-5-4-4-|
Db|-----------------------------------------------------------------|
  |
eb|-----------------------------------------------------------------|
Bb|-----------------------------------------------------------------|
Gb|-4---4---4-4-4/9-9-9-9/6-6-6-6/4-4-4-4-4-4-4-4-4---4-4---4-4-4-4-|
Db|-7---7---7-7-7/x-x-x-x/7-7-7-7/7-7-7-7-7-7-7-7-7---7-7---7-7-7-7-|
Ab|-5---5---5-5-5/7-7-7-7/4-4-4-4/5-5-5-5-5-5-5-5-5---5-5---5-5-5-5-|
Db|-----------------------------------------------------------------|

	Outro:
	
eb|------------------------------------------------------------------|
Bb|------------------------------------------------------------------|
Gb|-7-7-7-7-7-7-7-7-9-9-9-9-6-6-6-6-4-4-4-4-4-4-4-4-1111111111111111-|
Db|-x-x-x-x-x-x-x-x-x-x-x-x-x-x-x-x-x-x-x-x-x-x-x-x-x-x-x-x-x-x-x-x--|
Ab|-5-5-5-5-5-5-5-5-7-7-7-7-4-4-4-4-2-2-2-2-2-2-2-2-9-9-9-9-9-9-9-9--|
Db|------------------------------------------------------------------|
  | . . . . . . . . . . . . . . . . . . . . . . . . . . . . . . . .  |
  |
eb|------------------------------------------------------------------|
Bb|------------------------------------------------------------------|
Gb|-7-7-7-7-7-7-7-9-9-9-9-6-6-6-6-4-4-4-4-4-4-4-4-111111111111111111-|
Db|-x-x-x-x-x-x-x-x-x-x-x-x-x-x-x-x-x-x-x-x-x-x-x-x-x-x-x-x-x-x-x-x--|
Ab|-5-5-5-5-5-5-5-7-7-7-7-4-4-4-4-2-2-2-2-2-2-2-2-9-9-9-9-9-9-9-9-9--|
Db|------------------------------------------------------------------|
  | . . . . . . . . . . . . . . . . . . . . . . . . . .   .   . . .  |
  |
eb|-------------------------------------------------------------------------------|
Bb|-----------------10------------------------------------------------------------|
Gb|-----11---12----------12---11---12---11-----11---12-----11---9---9---9---9-----|
Db|-9-9----9----9-9----9----9----9----9----9-9----9----9-9----9---9---9---9---9-9-|
Ab|-------------------------------------------------------------------------------|
Db|-------------------------------------------------------------------------------|
  | . . .  . .  . . .  . .  . .  . .  . .  . . .  . .  . . .  . . . . . . . . . . |  
  |
eb|-------------------------------------------------------------------------------|
Bb|-----------------10------------------------------------------------------------|
Gb|-----11---12----------12---11---12---11-----11---12-----11---9---9---9---9-----|
Db|-9-9----9----9-9----9----9----9----9----9-9----9----9-9----9---9---9---9---9-9-|
Ab|-------------------------------------------------------------------------------|
Db|-------------------------------------------------------------------------------|
  | . . .  . .  . . .  . .  . .  . .  . .  . . .  . .  . . .  . . . . . . . . . . |
  |
eb|------------------------------------------------------------------|
Bb|------------------------------------------------------------------|
Gb|-7-7-7---7-7-7-7-9-9-9-9-6-6-6-6-4-4-4---4---4-4-1111111111111111-|
Db|-x-x-x-xxx-x-x-x-x-x-x-x-x-x-x-x-x-x-xxxxxxxxx-x-x-x-x-x-x-x-x-x--|
Ab|-5-5-5-555-5-5-5-7-7-7-7-4-4-4-4-2-2-222222222-2-9-9-9-9-9-9-9-9--|
Db|------------------------------------------------------------------|
  | . .   ..  . . . . . . . . . . . . .  ... .... . . .   .   . . .  | 
  |
eb|------------------------------------------------------------------|
Bb|------------------------------------------------------------------|
Gb|-7-7-7---7-7-7-7-9-9-9-9-6-6-6-6-4-4-4---4---4-4-1111111111111111-|
Db|-x-x-x-xxx-x-x-x-x-x-x-x-x-x-x-x-x-x-xxxxxxxxx-x-x-x-x-x-x-x-x-x--|
Ab|-5-5-5-555-5-5-5-7-7-7-7-4-4-4-4-2-2-222222222-2-9-9-9-9-9-9-9-9--|
Db|------------------------------------------------------------------|
  | . .   ..  . . . . . . . . . . . . .  ... .... . . .   .   . . .  |
  |
eb|------------------------------------------------------------------|
Bb|------------------------------------------------------------------|
Gb|-7-7-7---7-7-7-7-9-9-9-9-6-6-6-6-4-4-4---4---4-4-1111111111111111-|
Db|-x-x-x-xxx-x-x-x-x-x-x-x-x-x-x-x-x-x-xxxxxxxxx-x-x-x-x-x-x-x-x-x--|
Ab|-5-5-5-555-5-5-5-7-7-7-7-4-4-4-4-2-2-222222222-2-9-9-9-9-9-9-9-9--|
Db|------------------------------------------------------------------|
  | . .   ..  . . . . . . . . . . . . .  ... ...... . .   .   . . .  | 
  |
eb|------------------------------------------------------------------|
Bb|------------------------------------------------------------------|
Gb|-7-7-7---7-7-7-7-9-9-9-9-6-6-6-6-4-4-4---4---4-4-1111111111111111-|
Db|-x-x-x-xxx-x-x-x-x-x-x-x-x-x-x-x-x-x-xxxxxxxxx-x-x-x-x-x-x-x-x-x--|
Ab|-5-5-5-555-5-5-5-7-7-7-7-4-4-4-4-2-2-222222222-2-9-9-9-9-9-9-9-9--|
Db|------------------------------------------------------------------|
  | . .   ..  . . . . . . . . . . . . .  ... .... . . .   .   . . .  |
  |
eb|--------------------------|
Bb|--------------------------|
Gb|-9------------------------|
Db|-x------------------------|
Ab|-7------------------------|
Db|--------------------------|
    Some weird effect here as
	this note trails off.

_______________________________________________________________________________
Guitar 2:
(DbAbDbGbBbeb)

	Intro:
	
eb|---------------------------------------------------------------------------|
Bb|---------------------------------------------------------------------------|
Gb|-------------------------------7-7-7-7-7-----------------------------------|
Db|-7-7-7-7-9-9-9-0---0-0-0-5-5-5-7-7-7-7-7-9-9-9-9-5-5-5-5-7---7-7-7-7-7-7-7-|
Ab|-7-7-7-7-9-9-9-0---0-0-0-5-5-5-5-5-5-5-5-9-9-9-9-5-5-5-5-7---7-7-7-7-7-7-7-|
Db|-7-7-7-7-9-9-9-0---0-0-0-5-5-5-----------9-9-9-9-5-5-5-5-7---7-7-7-7-7-7-7-|
  |
eb|-------------------------------------------------------------------|
Bb|-------------------------------------------------------------------|
Gb|-----------------------7-7-7-7-7-----------------------------------|
Db|-9-9-9-0---0-0-0-5-5-5-7-7-7-7-7-9-9-9-9-5-5-5-5-7---7-7-7-7-7-7-7-|
Ab|-9-9-9-0---0-0-0-5-5-5-5-5-5-5-5-9-9-9-9-5-5-5-5-7---7-7-7-7-7-7-7-|
Db|-9-9-9-0---0-0-0-5-5-5-----------9-9-9-9-5-5-5-5-7---7-7-7-7-7-7-7-|


	Verse:

eb|-----------------------------------------------------------|
Bb|-----------------------------------------------------------|
Gb|----------------x-x-x---x-x-x----------------x-x-x-x-------|
Db|-9--9--7-/9--9--x-x-x---x-x-x-9--9xx7-/9--9--x-x-x-x-5-5-5-|
Ab|-9--9--7-/9--9--x-x-x---x-x-x-9--9xx7-/9--9--x-x-x-x-5-5-5-|
Db|-9--9--7-/9--9----------------9--9xx7-/9--9----------5-5-5-|
  |
eb|-----------------------------------------------------------|
Bb|-----------------------------------------------------------|
Gb|----------------x-x-x---x-x-x----------------x-x-x-x-7-7-7-|
Db|-9--9xx7-9-7-9--x-x-x---x-x-x-9--9xx7-9-7-9--x-x-x-x-7-7-7-|
Ab|-9--9xx7-9-7-9--x-x-x---x-x-x-9--9xx7-9-7-9--x-x-x-x-5-5-5-|
Db|-9--9xx7-9-7-9----------------9--9xx7-9-7-9----------------|
  |
eb|-----------------------------------------------------------|
Bb|-----------------------------------------------------------|
Gb|---------------------------------------------x---x---------|
Db|-9--9xx7-9-7-9------------9--99--9xx7-9-7-9--x---x---5-5-5-|
Ab|-9--9xx7-9-7-9------------x--x9--9xx7-9-7-9--x---x---5-5-5-|
Db|-9--9xx7-9-7-9------------9--99--9xx7-9-7-9----------5-5-5-|
  |
eb|-----------------------------------------------------------|
Bb|-----------------------------------------------------------|
Gb|----------------x---x---x---x----------------x-x-x-x-7-7-7-|
Db|-9--9xx7-9-7-9--x---x---x---x-9--9xx7-9-7-9--x-x-x-x-7-7-7-|
Ab|-9--9xx7-9-7-9--x---x---x---x-9--9xx7-9-7-9--x-x-x-x-5-5-5-|
Db|-9--9xx7-9-7-9----------------9--9xx7-9-7-9----------------|

	Bridge:
	
> Clean with Delay
eb|-----------------------------------------------------------------|
Bb|-----------------------------------------------------------------|
Gb|-4---4---4-4-4-6---6-6---6-6-6-6--/7-7---7-7-7-11--119-9-7-7-6-6-|
Db|-7---7---7-7-7-7---7-7---7-7-7-7--/7-7---7-7-7-x---x-x-x-x-x-x-x-|
Ab|-5---5---5-5-5-4---4-4---4-4-4-4--/5-5---5-5-5-9---9-7-7-5-5-4-4-|
Db|-----------------------------------------------------------------|
  |
eb|-------------------------------------------------|
Bb|-------------------------------------------------|
Gb|-4---4---4-4-4-6---6-6---6-6-6-6--/7-7---7-7-7---|
Db|-7---7---7-7-7-7---7-7---7-7-7-7--/7-7---7-7-7---|
Ab|-5---5---5-5-5-4---4-4---4-4-4-4--/5-5---5-5-5---|
Db|-------------------------------------------------|
  |
eb|---------------------|
Bb|---------------------|
Gb|---------------------|
Db|---------------------|
Ab|---------------------|
Db|---------------------|

	Chorus:

eb|-----------------------------------------------------------------|
Bb|-----------------------------------------------------------------|
Gb|-4---4---4-4-4-6---6-6---6-6-6-6--/7-7---7-7-7-11--119-9-7-7-6-6-|
Db|-7---7---7-7-7-7---7-7---7-7-7-7--/7-7---7-7-7-x---x-x-x-x-x-x-x-|
Ab|-5---5---5-5-5-4---4-4---4-4-4-4--/5-5---5-5-5-9---9-7-7-5-5-4-4-|
Db|-----------------------------------------------------------------|
  |
eb|-----------------------------------------------------------------|
Bb|-----------------------------------------------------------------|
Gb|-4---4---4-4-4-6---6-6---6-6-6-6--/7-7---7-7-7-7---7-7-7-7-7-7-7-|
Db|-7---7---7-7-7-7---7-7---7-7-7-7--/7-7---7-7-7-7---7-7-7-7-7-7-7-|
Ab|-5---5---5-5-5-4---4-4---4-4-4-4--/5-5---5-5-5-5---5-5-5-5-5-5-5-|
Db|-----------------------------------------------------------------|
  |
eb|-----------------------------------------------------------------|
Bb|-----------------------------------------------------------------|
Gb|-4---4---4-4-4/9-9-9-9/6-6-6-6/111111111111111111--119-9-7-7-6-6-|
Db|-7---7---7-7-7/x-x-x-x/7-7-7-7/x-x-x-x-x-x-x-x-x---x-x-x-x-x-x-x-|
Ab|-5---5---5-5-5/7-7-7-7/4-4-4-4/9-9-9-9-9-9-9-9-9---9-7-7-5-5-4-4-|
Db|-----------------------------------------------------------------|
  |
eb|-----------------------------------------------------------------|
Bb|-----------------------------------------------------------------|
Gb|-4---4---4-4-4/9-9-9-9/6-6-6-6/4-4-4-4-4-4-4-4-4---4-4---4-4-4-4-|
Db|-7---7---7-7-7/x-x-x-x/7-7-7-7/7-7-7-7-7-7-7-7-7---7-7---7-7-7-7-|
Ab|-5---5---5-5-5/7-7-7-7/4-4-4-4/5-5-5-5-5-5-5-5-5---5-5---5-5-5-5-|
Db|-----------------------------------------------------------------|

	Verse:

eb|-------------------------------------------------------------|
Bb|-------------------------------------------------------------|
Gb|-----------------x-x-x---x-x-x-----------------x-x-x-x-6^----|
Db|-9--9xx7-9-7-9---x-x-x---x-x-x-9--9xx7-9-7-9---x-x-x-x-------|
Ab|-9--9xx7-9-7-9---x-x-x---x-x-x-9--9xx7-9-7-9---x-x-x-x-------|
Db|-9--9xx7-9-7-9-----------------9--9xx7-9-7-9-----------------|
  |
eb|-------------------------------------------------------------|
Bb|-------------------------------------------------------------|
Gb|-----------------x-x-x-x-x-x-x-----------------x-x-x-x-7-7-7-|
Db|-9--9xx7-9-7-9---x-x-x-x-x-x-x-9--9xx7-9-7-9---x-x-x-x-7-7-7-|
Ab|-9--9xx7-9-7-9---x-x-x-x-x-x-x-9--9xx7-9-7-9---x-x-x-x-5-5-5-|
Db|-9--9xx7-9-7-9-----------------9--9xx7-9-7-9-----------------|
  |
eb|-------------------------------------------------------------|
Bb|-------------------------------------------------------------|
Gb|-----------------x-x-x---x-x-x-----------------x-x-x-x-------|
Db|-9--9xx7-9-7-9---x-x-x---x-x-x-9--9xx7-9-7-9---x-x-x-x-5-5-5-|
Ab|-9--9xx7-9-7-9---x-x-x---x-x-x-9--9xx7-9-7-9---x-x-x-x-5-5-5-|
Db|-9--9xx7-9-7-9-----------------9--9xx7-9-7-9-----------5-5-5-|
  |
eb|-------------------------------------------------------------|
Bb|-------------------------------------------------------------|
Gb|-----------------x-x-x-x-----------------------x-x-x-x-7-7-7-|
Db|-9--9xx7-9-7-9---x-x-x-x-------9--9xx7-9-7-9---x-x-x-x-7-7-7-|
Ab|-9--9xx7-9-7-9---x-x-x-x-9-9-9-9--9xx7-9-7-9---x-x-x-x-5-5-5-|
Db|-9--9xx7-9-7-9-----------------9--9xx7-9-7-9-----------------|
  
	Bridge:
	
> Clean with Delay
eb|-----------------------------------------------------------------|
Bb|-----------------------------------------------------------------|
Gb|-4---4---4-4-4-6---6-6---6-6-6-6--/7-7---7-7-7-11--119-9-7-7-6-6-|
Db|-7---7---7-7-7-7---7-7---7-7-7-7--/7-7---7-7-7-x---x-x-x-x-x-x-x-|
Ab|-5---5---5-5-5-4---4-4---4-4-4-4--/5-5---5-5-5-9---9-7-7-5-5-4-4-|
Db|-----------------------------------------------------------------|
  |
eb|-----------------------------------|
Bb|-----------------------------------|
Gb|-4---4---4-4-4-6---6-6---6-6-6-6---|
Db|-7---7---7-7-7-7---7-7---7-7-7-7---|
Ab|-5---5---5-5-5-4---4-4---4-4-4-4---|
Db|-----------------------------------|
  |
> Distortion
eb|-----------------------------------|
Bb|-----------------------------------|
Gb|-----------------------------------|
Db|-9-9-9-9-9-9-9-9-9-9-9-9-9-9-9-9-9-|
Ab|-9-9-9-9-9-9-9-9-9-9-9-9-9-9-9-9-9-|
Db|-9-9-9-9-9-9-9-9-9-9-9-9-9-9-9-9-9-|
  | . . . . . . . . . . . . . . . . . |
             Slowly release palm mute

	Chorus:

eb|-----------------------------------------------------------------|
Bb|-----------------------------------------------------------------|
Gb|-4---4---4-4-4-6---6-6---6-6-6-6--/7-7---7-7-7-11--119-9-7-7-6-6-|
Db|-7---7---7-7-7-7---7-7---7-7-7-7--/7-7---7-7-7-x---x-x-x-x-x-x-x-|
Ab|-5---5---5-5-5-4---4-4---4-4-4-4--/5-5---5-5-5-9---9-7-7-5-5-4-4-|
Db|-----------------------------------------------------------------|
  |
eb|-----------------------------------------------------------------|
Bb|-----------------------------------------------------------------|
Gb|-4---4---4-4-4-6---6-6---6-6-6-6--/7-7---7-7-7-7---7-7-7-7-7-7-7-|
Db|-7---7---7-7-7-7---7-7---7-7-7-7--/7-7---7-7-7-7---7-7-7-7-7-7-7-|
Ab|-5---5---5-5-5-4---4-4---4-4-4-4--/5-5---5-5-5-5---5-5-5-5-5-5-5-|
Db|-----------------------------------------------------------------|
  |
eb|---------------------------------------------------------|
Bb|---------------------------------------------------------|
Gb|-4---4---4-4-4/9-9-9-9/6-6-6-6/--------------------------|
Db|-7---7---7-7-7/x-x-x-x/7-7-7-7/9---9---9-9-9---9---9-9-9-|
Ab|-5---5---5-5-5/7-7-7-7/4-4-4-4/9---9---9-9-9---9---9-9-9-|
Db|-------------------------------9---9---9-9-9---9---9-9-9-|
  |                               .           .             |
  |
eb|---------------------------------------------------------|
Bb|---------------------------------------10----------------|
Gb|-4---4---4-4-4/9-9-9-9/6-6-6-6/--------9-----------------|
Db|-7---7---7-7-7/x-x-x-x/7-7-7-7/11--12--9-----------------|
Ab|-5---5---5-5-5/7-7-7-7/4-4-4-4/11--12--9-----------------|
Db|-------------------------------11--12--9-----------------|
  |                               .   .                     |
  
	Interlude:

> Clean with Delay
eb|-----------------------------------------------------|
Bb|-----------------------------------------------------|
Gb|-9---9---9-9-9-10--1010--1010104---4---4-4-4---4-4-4-|
Db|-x---x---x-x-x-x---x-x---x-x-x-7---7---7-7-7---7-7-7-|
Ab|-7---7---7-7-7-9---9-9---9-9-9-5---5---5-5-5---5-5-5-|
Db|-----------------------------------------------------|
  |
> Distortion
eb|-------5-------------------5------------------------|
Bb|-------x-------------------x---10-------------------|
Gb|-6-6-6-7-------------6-6-6-7--/12-------------6-6-6-|
Db|-7-7-7-7-------------7-7-7-7--/12-------------7-7-7-|
Ab|-4-4-4-5-------------4-4-4-5--/10-------------4-4-4-|
Db|----------------------------------------------------|
  |
eb|---------------------------------------------------------------|
Bb|---------------------------------------------------------------|
Gb|-4---44---4---4---4---4---6-6-6-4---44---4---4---4---4---6-6-6-|
Db|-7---77---7---7---7---7---7-7-7-7---77---7---7---7---7---7-7-7-|
Ab|-5---55---5---5---5---5---4-4-4-5---55---5---5---5---5---4-4-4-|
Db|---------------------------------------------------------------|
  |
eb|---------------------------------------------------------------|
Bb|---------------------------------------------------------------|
Gb|-4---44---4---4---4---4---6-6-6-4---44---4---4---4---4---6-6-6-|
Db|-4---44---4---4---4---4---7-7-7-4---44---4---4---4---4---7-7-7-|
Ab|-2---22---2---2---2---2---4-4-4-2---22---2---2---2---2---4-4-4-|
Db|---------------------------------------------------------------|
  |
eb|---------------------------------------------------------------|
Bb|---------------------------------------------------------------|
Gb|-4---44---4---4---4---4---6-6-6-4---44---4---4---4---4---6-6-6-|
Db|-7---77---7---7---7---7---7-7-7-7---77---7---7---7---7---7-7-7-|
Ab|-5---55---5---5---5---5---4-4-4-5---55---5---5---5---5---4-4-4-|
Db|---------------------------------------------------------------|
  |
eb|---------------------------------------------------------------|
Bb|---------------------------------------------------------------|
Gb|-4---44---4---4---4---4---6-6-6-4---44---4---4---4---4---------|
Db|-4---44---4---4---4---4---7-7-7-4---44---4---4---4---4---7-7-7-|
Ab|-2---22---2---2---2---2---4-4-4-2---22---2---2---2---2---7-7-7-|
Db|---------------------------------------------------------7-7-7-|
  |
> Distortion with Wah
eb|-----------------------------------------------------------------------|
Bb|-----------------------------------------------------------------------|
Gb|-----------------------------------------------------------------------|
Db|-5---------------------------------------------------------------------|
Ab|-5---------------------------------------------------------------------|
Db|-5---------------------------------------------------------------------|

	Chorus:

eb|-----------------------------------------------------------------|
Bb|-----------------------------------------------------------------|
Gb|-4---4---4-4-4-6---6-6---6-6-6-6--/7-7---7-7-7-11--119-9-7-7-6-6-|
Db|-7---7---7-7-7-7---7-7---7-7-7-7--/7-7---7-7-7-x---x-x-x-x-x-x-x-|
Ab|-5---5---5-5-5-4---4-4---4-4-4-4--/5-5---5-5-5-9---9-7-7-5-5-4-4-|
Db|-----------------------------------------------------------------|
  |
eb|-----------------------------------------------------------------|
Bb|-----------------------------------------------------------------|
Gb|-4---4---4-4-4-6---6-6---6-6-6-6--/7-7---7-7-7-7---7-7-7-7-7-7-7-|
Db|-7---7---7-7-7-7---7-7---7-7-7-7--/7-7---7-7-7-7---7-7-7-7-7-7-7-|
Ab|-5---5---5-5-5-4---4-4---4-4-4-4--/5-5---5-5-5-5---5-5-5-5-5-5-5-|
Db|-----------------------------------------------------------------|
  |
eb|-----------------------------------------------------------------|
Bb|-----------------------------------------------------------------|
Gb|-4---4---4-4-4/9-9-9-9/6-6-6-6/111111111111111111--119-9-7-7-6-6-|
Db|-7---7---7-7-7/x-x-x-x/7-7-7-7/x-x-x-x-x-x-x-x-x---x-x-x-x-x-x-x-|
Ab|-5---5---5-5-5/7-7-7-7/4-4-4-4/9-9-9-9-9-9-9-9-9---9-7-7-5-5-4-4-|
Db|-----------------------------------------------------------------|
  |
eb|-----------------------------------------------------------------|
Bb|-----------------------------------------------------------------|
Gb|-4---4---4-4-4/9-9-9-9/6-6-6-6/4-4-4-4-4-4-4-4-4---4-4---4-4-4-4-|
Db|-7---7---7-7-7/x-x-x-x/7-7-7-7/7-7-7-7-7-7-7-7-7---7-7---7-7-7-7-|
Ab|-5---5---5-5-5/7-7-7-7/4-4-4-4/5-5-5-5-5-5-5-5-5---5-5---5-5-5-5-|
Db|-----------------------------------------------------------------|

	Outro:
	
eb|------------------------------------------------------------------|
Bb|------------------------------------------------------------------|
Gb|-7-7-7-7-7-7-7-7-9-9-9-9-6-6-6-6-4-4-4-4-4-4-4-4-1111111111111111-|
Db|-x-x-x-x-x-x-x-x-x-x-x-x-x-x-x-x-x-x-x-x-x-x-x-x-x-x-x-x-x-x-x-x--|
Ab|-5-5-5-5-5-5-5-5-7-7-7-7-4-4-4-4-2-2-2-2-2-2-2-2-9-9-9-9-9-9-9-9--|
Db|------------------------------------------------------------------|
  | . . . . . . . . . . . . . . . . . . . . . . . . . . . . . . . .  |
  |
eb|------------------------------------------------------------------|
Bb|------------------------------------------------------------------|
Gb|-7-7-7-7-7-7-7-9-9-9-9-6-6-6-6-4-4-4-4-4-4-4-4-111111111111111111-|
Db|-x-x-x-x-x-x-x-x-x-x-x-x-x-x-x-x-x-x-x-x-x-x-x-x-x-x-x-x-x-x-x-x--|
Ab|-5-5-5-5-5-5-5-7-7-7-7-4-4-4-4-2-2-2-2-2-2-2-2-9-9-9-9-9-9-9-9-9--|
Db|------------------------------------------------------------------|
  | . . . . . . . . . . . . . . . . . . . . . . . . . .   .   . . .  |
  |
eb|------------------------------------------------------------------|
Bb|------------------------------------------------------------------|
Gb|-7-7-7-7-7-7-7-9-9-9-9-6-6-6-6-4-4-4-4-4-4-4-4-111111111111111111-|
Db|-x-x-x-x-x-x-x-x-x-x-x-x-x-x-x-x-x-x-x-x-x-x-x-x-x-x-x-x-x-x-x-x--|
Ab|-5-5-5-5-5-5-5-7-7-7-7-4-4-4-4-2-2-2-2-2-2-2-2-9-9-9-9-9-9-9-9-9--|
Db|------------------------------------------------------------------|
  | . . . . . . . . . . . . . . . . . . . . . . . . . .   .   . . .  |
  |
eb|------------------------------------------------------------------|
Bb|------------------------------------------------------------------|
Gb|-7-7-7-7-7-7-7-9-9-9-9-6-6-6-6-4-4-4-4-4-4-4-4-111111111111111111-|
Db|-x-x-x-x-x-x-x-x-x-x-x-x-x-x-x-x-x-x-x-x-x-x-x-x-x-x-x-x-x-x-x-x--|
Ab|-5-5-5-5-5-5-5-7-7-7-7-4-4-4-4-2-2-2-2-2-2-2-2-9-9-9-9-9-9-9-9-9--|
Db|------------------------------------------------------------------|
  | . . . . . . . . . . . . . . . . . . . . . . . . . .   .   . . .  |
  |
eb|------------------------------------------------------------------|
Bb|------------------------------------------------------------------|
Gb|-7-7-7---7-7-7-7-9-9-9-9-6-6-6-6-4-4-4---4---4-4-1111111111111111-|
Db|-x-x-x-xxx-x-x-x-x-x-x-x-x-x-x-x-x-x-xxxxxxxxx-x-x-x-x-x-x-x-x-x--|
Ab|-5-5-5-555-5-5-5-7-7-7-7-4-4-4-4-2-2-222222222-2-9-9-9-9-9-9-9-9--|
Db|------------------------------------------------------------------|
  | . .   ..  . . . . . . . . . . . . .  ... .... . . .   .   . . .  | 
  |
eb|------------------------------------------------------------------|
Bb|------------------------------------------------------------------|
Gb|-7-7-7---7-7-7-7-9-9-9-9-6-6-6-6-4-4-4---4---4-4-1111111111111111-|
Db|-x-x-x-xxx-x-x-x-x-x-x-x-x-x-x-x-x-x-xxxxxxxxx-x-x-x-x-x-x-x-x-x--|
Ab|-5-5-5-555-5-5-5-7-7-7-7-4-4-4-4-2-2-222222222-2-9-9-9-9-9-9-9-9--|
Db|------------------------------------------------------------------|
  | . .   ..  . . . . . . . . . . . . .  ... .... . . .   .   . . .  |
  |
eb|------------------------------------------------------------------|
Bb|------------------------------------------------------------------|
Gb|-7-7-7---7-7-7-7-9-9-9-9-6-6-6-6-4-4-4---4---4-4-1111111111111111-|
Db|-x-x-x-xxx-x-x-x-x-x-x-x-x-x-x-x-x-x-xxxxxxxxx-x-x-x-x-x-x-x-x-x--|
Ab|-5-5-5-555-5-5-5-7-7-7-7-4-4-4-4-2-2-222222222-2-9-9-9-9-9-9-9-9--|
Db|------------------------------------------------------------------|
  | . .   ..  . . . . . . . . . . . . .  ... ...... . .   .   . . .  | 
  |
eb|------------------------------------------------------------------|
Bb|------------------------------------------------------------------|
Gb|-7-7-7---7-7-7-7-9-9-9-9-6-6-6-6-4-4-4---4---4-4-1111111111111111-|
Db|-x-x-x-xxx-x-x-x-x-x-x-x-x-x-x-x-x-x-xxxxxxxxx-x-x-x-x-x-x-x-x-x--|
Ab|-5-5-5-555-5-5-5-7-7-7-7-4-4-4-4-2-2-222222222-2-9-9-9-9-9-9-9-9--|
Db|------------------------------------------------------------------|
  | . .   ..  . . . . . . . . . . . . .  ... .... . . .   .   . . .  |
  |
eb|--------------------------|
Bb|--------------------------|
Gb|-9------------------------|
Db|-x------------------------|
Ab|-7------------------------|
Db|--------------------------|





Comments


Popular Ivoryline tabs & chords
Days End Bass Tabs
Vessels Bass Tabs
Made From Dust Chords
Hearts And Minds Tabs
Instincts Tabs
Parade Tabs
Remind Me I'm Alive Tabs
The Healing Tabs
The Last Words 2 Tabs
Vessels Tabs


Song lyrics



↑ Back to top | Tablatures and chords are parodies/interpretations of the original songs. You may use it for private study, scholarship, research or language learning purposes only
© 2014 AZChords.com Contact us | Privacy policy | DMCA | Add/correct tabs | Request tabs | Top 50 tabs