» » »

Penge Naman Ako N'yan Tabs (ver.2)

Artists:  A B C D E F G H I J K L M N O P Q R S T U V W X Y Z # 

Penge Naman Ako N'yan Tabs (ver.2)

Itchyworms
Rating:
0/5 (0 votes)

Hard to play? Try these video lessons and learn fast.
                -------------------------------------------------------------------------------
                             PENGE NAMAN AKO NYAN - Itchyworms
-------------------------------------------------------------------------------

Tuning: Standard

Intro: A-E-A-E
 
    | 
    V  tong part na to, sabay tong 9 at 11 tapos bend nyo ung 11..
e|------------------------------------------------------------------------------|
B|--9-----9-9-9-------------9-----9-9-9-----------------------------------------|
G|--11^13-------11-9-9\6----11^13-------11-9------------------------------------|
D|-------------------------------------------9----------------------------------|
A|------------------------------------------------------------------------------|
E|------------------------------------------------------------------------------|

e|------------------------------------------------------------------------------|
B|--9-----9-9-9-------------9-----9-9-9-----------------------------------------|
G|--11^13-------11-9-9\6----11^13-------11-9-9----------------------------------|
D|------------------------------------------------------------------------------|
A|------------------------------------------------------------------------------|
E|------------------------------------------------------------------------------|

Stanza: 

e|-----------------------9--9--9--9--12-12-11-11-14-14-14-14-14-14-12-12--------|
B|--9--9-9-9-10-10-10-10-10-10-10-10-12-12-12-12-14-14-14-14-14-14-14-14--------|
G|--9--9-9-9-9--9--9--9--11-11-11-11-11-11-11-11-13-13-13-13-13-13-13-13--------|
D|------------------------------------------------------------------------------|
A|------------------------------------------------------------------------------|
E|------------------------------------------------------------------------------|

e|------------------------------------------------------------------------------|
B|------------------------------------------------------------------------------|
G|------------------------------------------------------------------------------|
D|--12-12-12-12-12-11-10-9-9-9-9-9-9--------------------------------------------|
A|--12-12-12-12-12-11-10-9-9-9-9-9-9--------------------------------------------|
E|--10-10-10-10-10-9--8--7-7-7-7-7-7--------------------------------------------|

Refrain:
    A  B  A  F#m B
e|------------------------------------------------------------------------------|
B|------------------------------------------------------------------------------|
G|------------------------------------------------------------------------------|
D|--7--9--7--4--9---------------------------------------------------------------|
A|--7--9--7--4--9---------------------------------------------------------------|
E|--5--7--5--2--7---------------------------------------------------------------|

Chorus:

e|------------------------------------------------------------------------------|
B|--9-----9-9-9-------------9-----9-9-9-----------------------------------------|
G|--11^13-------11-9-9\6----11^13-------11-9------------------------------------|
D|-------------------------------------------9----------------------------------|
A|------------------------------------------------------------------------------|
E|------------------------------------------------------------------------------|

e|------------------------------------------------------------------------------|
B|--9-----9-9-9-----------------------------------------------------------------|
G|--11^13-------11-9-9\6--------------------------------------------------------|
D|--------------------------2---------------------------------------------------|
A|--------------------------2---------------------------------------------------|
E|--------------------------0---------------------------------------------------|

Bridge: (dahan dahan da..)
    C  Am E
e|------------------------------------------------------------------------------|
B|------------------------------------------------------------------------------|
G|--5---------------------------------------------------------------------------|
D|--5--7--2---------------------------------------------------------------------|
A|--3--7--2---------------------------------------------------------------------|
E|-----5--0---------------------------------------------------------------------|

Adlib: \m/(-.-)\m/

   add some feelings.. \m/  ..this lick has lots of some kind of stops using the picking hand.. 
kayo n lng bhala kung pano un, pakinggan nyo n lng >;)

e|----------------------------------------------12-------12-14^16--16v14-12-|
B|-----------------------------------9-12-12/14----12/14--------------------|
G|----------9-11^13-11-11p9-9---9h11----------------------------------------|
D|--9h11-11-----------------------------------------------------------------|
A|--------------------------------------------------------------------------|
E|--------------------------------------------------------------------------|

e|--12----------------------------------------------------------------------|
B|-----14\12-12-12\9-9\7----------------------------------------------------|
G|-----------------------11\9-9\6------------------9-11^13v11-9-------------|
D|--------------------------------9-6---------9-11--------------------------|
A|------------------------------------7--9/11-------------------------------|
E|--------------------------------------------------------------------------|

e|---------------------------------------------------------------------------|
B|---------------------------------------------------------------------------|
G|--9-----------9-9--------------6-5-4---------------------------------------|
D|----11p9-9h11------12----------6-5-4---------------------------------------|
A|-------------------12----------4-3-2---------------------------------------|
E|-------------------10--2-3-4-5---------------------------------------------|

e|---------------------------------------------------------------------------|
B|-----------------------------------9-----9-9-9-----------------------------|
G|--------------11^13v11p9----9/11---11^13-------11-9-9\6--------------------|
D|-------------------------11------------------------------------------------|
A|------9-10-12--------------------------------------------------------------|
E|--/10----------------------------------------------------------------------|

(Refrain)

Chorus again..

e|---------------------------------------------------------------------------|
B|--9-----9-9-9-------------9-----9-9-----9-9-----9-9-----9------------------|
G|--11^13-------11-9-9\6----11^13---11^13---11^13---11^13--------------------|
D|---------------------------------------------------------------------------|
A|---------------------------------------------------------------------------|
E|---------------------------------------------------------------------------|


e|---------------------------------------------------------------------------|
B|--9-----9-----9-----9-----9-----9-----------9-----9-9-9--------------------|
G|--11^13-11^13-11^13-11^13-11^13-11^13v11-9--11^13-------11-9-9-------------|
D|---------------------------------------------------------------------------|
A|---------------------------------------------------------------------------|
E|---------------------------------------------------------------------------|

e|---------------------------------------------------------------------------|
B|---------------------------------------------------------------------------|
G|-----------6-6-6-6---------------------------------------------------------|
D|--4-4-4-4--6-6-6-6--7-7-7-7--2---------------------------------------------|
A|--4-4-4-4--4-4-4-4--7-7-7-7--2---------------------------------------------|
E|--2-2-2-2-----------5-5-5-5--0---------------------------------------------|


Outro: 

e|---------------------------------------------------------------------------|
B|---------------------------------------------------------------------------|
G|--2-2-2-2--2-2-2-2--2-2-2-2------------------------------------------------|
D|--2-2-2-2--2-2-2-2--2-2-2-2--------2---------------------------------------|
A|--0-0-0-0--0-0-0-0--0-0-0-0--------2---------------------------------------|
E|-----------------------------4--2--0---------------------------------------|


| /  slide up
| \  slide down
| h  hammer-on
| p  pull-off
| ~  vibrato
| +  harmonic
| x  Mute note
| ^  bend up
| v  bend down
===============================================================================
            
Hard to play? Try these video lessons and learn fast. | Correct




comments powered by Disqus
↑ Back to top | Tablatures and chords are parodies/interpretations of the original songs. You may use it for private study, scholarship, research or language learning purposes only