» » »

Israel Kamakawiwoole, Somewhere Over The Rainbow Tabs (ver.1)

Artists:  A B C D E F G H I J K L M N O P Q R S T U V W X Y Z # 

Somewhere Over The Rainbow Tabs (ver.1)

Israel Kamakawiwoole Tabs
Rating:
0/5 (0 votes)
Somewhere Over The Rainbow lessons Tabs too difficult? Try these video lessons and learn fast
                Somewhere over the rainbow

the same pattern. Or has the same chords. Oh and I couldn't find an easy way to mark down
the strumming so you just gotta figure it out yourself, it's not difficult if you listen 
to the song.

but anyway enjoy, it's a beautiful song.

If You tune your ukulele as the first 4 strings of the guitar here then you'll be able
to play that on ukulele and it sounds better.

Intro:

E---8--x--7--x---|--5--x--5--x---|--8--x--7--x---|--5--x--5--x---|--5--x--5--x---||
B---5--x--5--x---|--5--x--6--x---|--5--x--8--x---|--5--x--8--x---|--6--x--6--x---||
G---5--x--5--x---|--5--x--5--x---|--5--x--7--x---|--5--x--5--x---|--5--x--5--x---||
D---5--x--5--x---|--7--x--7--x---|--5--x--5--x---|--7--x--7--x---|--7--x--7--x---||
A----------------|---------------|---------------|---------------|---------------||
E----------------|---------------|---------------|---------------|---------------||

the very beginning of the actual song:

E---8--x--8--x---|--7--x--7--x---|--5--x--5--x---|--8--x--8--x---||
B---5--x--5--x---|--5--x--5--x---|--6--x--6--x---|--5--x--5--x---||
G---5--x--5--x---|--5--x--5--x---|--5--x--5--x---|--5--x--5--x---||
D---5--x--5--x---|--5--x--5--x---|--7--x--7--x---|--5--x--5--x---||
A----------------|---------------|---------------|---------------||
E----------------|---------------|---------------|---------------||

    uuu..

E---5--x--5--x---|--7--x--7--x---|--5--x--5--x---|--5--x--5--x---||
B---6--x--6--x---|--5--x--5--x---|--5--x--5--x---|--6--x--6--x---||
G---5--x--5--x---|--5--x--5--x---|--5--x--5--x---|--5--x--5--x---||
D---7--x--7--x---|--6--x--6--x---|--7--x--7--x---|--7--x--7--x---||
A----------------|---------------|---------------|---------------||
E----------------|---------------|---------------|---------------||

    uuuu..         uu

E---8--x--8--x---|--7--x--7--x---|--5--x--5--x---|--8--x--8--x---||
B---5--x--5--x---|--5--x--5--x---|--6--x--6--x---|--5--x--5--x---||
G---5--x--5--x---|--5--x--5--x---|--5--x--5--x---|--5--x--5--x---||
D---5--x--5--x---|--5--x--5--x---|--7--x--7--x---|--5--x--5--x---||
A----------------|---------------|---------------|---------------||
E----------------|---------------|---------------|---------------||

    Somewhere       over the..

E---5--x--5--x---|--8--x--8--x---|--7--x--7--x---|--5--x--5--x---|--5--x--5--x---||
B---6--x--6--x---|--5--x--5--x---|--8--x--8--x---|--5--x--5--x---|--6--x--6--x---||
G---5--x--5--x---|--5--x--5--x---|--7--x--7--x---|--5--x--5--x---|--5--x--5--x---||
D---7--x--7--x---|--5--x--5--x---|--5--x--5--x---|--7--x--7--x---|--7--x--7--x---||
A----------------|---------------|---------------|---------------|---------------||
E----------------|---------------|---------------|---------------|---------------||

    And the..

E---8--x--8--x---|--7--x--7--x---|--5--x--5--x---|--8--x--8--x---||
B---5--x--5--x---|--5--x--5--x---|--6--x--6--x---|--5--x--5--x---||
G---5--x--5--x---|--5--x--5--x---|--5--x--5--x---|--5--x--5--x---||
D---5--x--5--x---|--5--x--5--x---|--7--x--7--x---|--5--x--5--x---||
A----------------|---------------|---------------|---------------||
E----------------|---------------|---------------|---------------||

    Somewhere...

E---5--x--5--x---|--8--x--8--x---|--7--x--7--x---|--5--x--5--x---|--5--x--5--x---||
B---6--x--6--x---|--5--x--5--x---|--8--x--8--x---|--5--x--5--x---|--6--x--6--x---||
G---5--x--5--x---|--5--x--5--x---|--7--x--7--x---|--5--x--5--x---|--5--x--5--x---||
D---7--x--7--x---|--5--x--5--x---|--5--x--5--x---|--7--x--7--x---|--7--x--7--x---||
A----------------|---------------|---------------|---------------|---------------||
E----------------|---------------|---------------|---------------|---------------||

    And the...                                      true..

E---8--x--8--x---|--7--x--7--x---|--5--x--5--x---|--5--x--5--x---||
B---5--x--5--x---|--5--x--5--x---|--5--x--5--x---|--6--x--6--x---||
G---5--x--5--x---|--5--x--5--x---|--5--x--5--x---|--5--x--5--x---||
D---5--x--5--x---|--5--x--5--x---|--7--x--7--x---|--7--x--7--x---||
A----------------|---------------|---------------|---------------||
E----------------|---------------|---------------|---------------||

    Someday I wish..

E---8--x--8--x---|--7--x--7--x---|--5--x--5--x---|--5--x--5--x---||
B---5--x--5--x---|--5--x--5--x---|--5--x--5--x---|--6--x--6--x---||
G---5--x--5--x---|--5--x--5--x---|--5--x--5--x---|--5--x--5--x---||
D---5--x--5--x---|--5--x--5--x---|--7--x--7--x---|--7--x--7--x---||
A----------------|---------------|---------------|---------------||
E----------------|---------------|---------------|---------------||

    Troubl melts...

E---8--x--8--x---|--7--x--7--x---|--5--x--5--x---|--8--x--8--x---||
B---5--x--5--x---|--5--x--5--x---|--6--x--6--x---|--5--x--5--x---||
G---5--x--5--x---|--5--x--5--x---|--5--x--5--x---|--5--x--5--x---||
D---5--x--5--x---|--5--x--5--x---|--7--x--7--x---|--5--x--5--x---||
A----------------|---------------|---------------|---------------||
E----------------|---------------|---------------|---------------||

    Somewhere

E---5--x--5--x---|--8--x--8--x---|--7--x--7--x---|--5--x--5--x---|--5--x--5--x---||
B---6--x--6--x---|--5--x--5--x---|--8--x--8--x---|--5--x--5--x---|--6--x--6--x---||
G---5--x--5--x---|--5--x--5--x---|--7--x--7--x---|--5--x--5--x---|--5--x--5--x---||
D---7--x--7--x---|--5--x--5--x---|--5--x--5--x---|--7--x--7--x---|--7--x--7--x---||
A----------------|---------------|---------------|---------------|---------------||
E----------------|---------------|---------------|---------------|---------------||

    And the dream..

E---8--x--8--x---|--7--x--7--x---|--5--x--5--x---|--5--x--5--x---||
B---5--x--5--x---|--5--x--5--x---|--5--x--5--x---|--6--x--6--x---||
G---5--x--5--x---|--5--x--5--x---|--5--x--5--x---|--5--x--5--x---||
D---5--x--5--x---|--5--x--5--x---|--7--x--7--x---|--7--x--7--x---||
A----------------|---------------|---------------|---------------||
E----------------|---------------|---------------|---------------||

    Someday I wish..

E---8--x--8--x---|--7--x--7--x---|--5--x--5--x---|--5--x--5--x---||
B---5--x--5--x---|--5--x--5--x---|--5--x--5--x---|--6--x--6--x---||
G---5--x--5--x---|--5--x--5--x---|--5--x--5--x---|--5--x--5--x---||
D---5--x--5--x---|--5--x--5--x---|--7--x--7--x---|--7--x--7--x---||
A----------------|---------------|---------------|---------------||
E----------------|---------------|---------------|---------------||

    Trouble melts...

E---8--x--6?-x---|--7--x--7--x---|--5--x--5--x---|--8--x--8--x---||
B---5--x--5--x---|--5--x--5--x---|--6--x--6--x---|--5--x--5--x---||
G---5--x--5--x---|--5--x--5--x---|--5--x--5--x---|--5--x--5--x---||
D---5--x--5--x---|--5--x--5--x---|--7--x--7--x---|--5--x--5--x---||
A----------------|---------------|---------------|---------------||
E----------------|---------------|---------------|---------------||

    Somewhere

E---5--x--5--x---|--8--x--8--x---|--7--x--7--x---|--5--x--5--x---|--5--x--5--x---||
B---6--x--6--x---|--5--x--5--x---|--8--x--8--x---|--5--x--5--x---|--6--x--6--x---||
G---5--x--5--x---|--5--x--5--x---|--7--x--7--x---|--5--x--5--x---|--5--x--5--x---||
D---7--x--7--x---|--5--x--5--x---|--5--x--5--x---|--7--x--7--x---|--7--x--7--x---||
A----------------|---------------|---------------|---------------|---------------||
E----------------|---------------|---------------|---------------|---------------||

    And the dream..

The very ending of the song:

E---8--x--8--x---|--7--x--7--x---|--5--x--5--x---|--8--x--8--x---||
B---5--x--5--x---|--5--x--5--x---|--6--x--6--x---|--5--x--5--x---||
G---5--x--5--x---|--5--x--5--x---|--5--x--5--x---|--5--x--5--x---||
D---5--x--5--x---|--5--x--5--x---|--7--x--7--x---|--5--x--5--x---||
A----------------|---------------|---------------|---------------||
E----------------|---------------|---------------|---------------||

    uuu..

E---5--x--5--x---|--7--x--7--x---|--5--x--5--x---|--5--x--5--x---||
B---6--x--6--x---|--5--x--5--x---|--5--x--5--x---|--6--x--6--x---||
G---5--x--5--x---|--5--x--5--x---|--5--x--5--x---|--5--x--5--x---||
D---7--x--7--x---|--6--x--6--x---|--7--x--7--x---|--7--x--7--x---||
A----------------|---------------|---------------|---------------||
E----------------|---------------|---------------|---------------||

    uuuu..         uu..


Lauri Laanelaid
            

comments powered by Disqus
↑ Back to top | Israel Kamakawiwoole Tabs for Somewhere Over The Rainbow. Lyrics for acoustic guitar and electric guitar. Tablatures and chords are parodies/interpretations of the original songs. You may use it for private study, scholarship, research or language learning purposes only