» » »

Israel Kamakawiwoole, Kaleohano Tabs (ver.1)

Artists:  A B C D E F G H I J K L M N O P Q R S T U V W X Y Z # 

Kaleohano Tabs (ver.1)

Israel Kamakawiwoole Tabs
 Rating:
4.2/5 (5 votes)
Kaleohano lessons Tabs too difficult? Try these video lessons and learn fast
                KALEOHANO
As recorded by Iz
(From the 1993 Album E ALA E)

I hope you enjoy this. This is 100% accurate. please try it out and rate it. let me know 
if you want to change anything with it. Thank You so much!!





Gtr I (E A D G B E) - 'Acoustic '

  Q=80
 4/4
  Gtr I

|-----0-------0---|-----0-------0---|-------------0---|
|-1-------3-------|-1-------3-----1-|-1---1---3-----1-|
|---0---0---0---0-|---2---2---2-----|---0---0---0-----|
|-----2-------2---|-3---3---3---3---|-----2-----------|
|-3-------3-------|-----------------|-3-------3---3---|
|-----------------|-----------------|-----------------|



|-----------------||------0-------0---|-----0-----------|
|-0---0---1---3---||o-1-------3-----1-|-1-------3---1---|
|-------0---0-----||----0---0---0-----|---2---2---2---2-|
|---0-----2---3-x-||------------------|-3---3---3---3---|
|-----------------||o-3---3---3---3---|-----------------|
|-3---------------||------------------|-----------------|



|-------------0---|-----------------|-----0-------0---|
|-1---1---3-----0-|-----0---1---0---|-1-------3-------|
|---0---0---0-----|-------0---0---0-|---0---0---0---0-|
|-------------2---|---0-----2-------|-----------------|
|-3---3---3-------|-----------------|-3---3---3---3---|
|-----------------|-3-----------3---|-----------------|



|-----0-------0---|-----0-------^3---|--------------^0---|
|-1-------3-------|-1-------0---^0---|-----^1-------^1---|
|---2---2---2---2-|---0---0-----^0---|-----^0-----3-^3---|
|-3---3---3---3---|-----2-----0-^0-0-|---2-^2-2-2---^2-2-|
|-----------------|-3----------------|-3-----------------|
|-----------------|---------3--------|-------------------|



|-----^1-----------|-----^3-------|-----0-------0---|
|-----^1---1---1---|-----^0-------|---3-----3-------|
|---2-^2-----------|-----^0-------|---0---0-------0-|
|-3------3---3---3-|---0-^0-------|-----------2-----|
|------------------|--------------|-3---3---3---3---|
|------------------|-3------------|-----------------|


                                      1.,2.,3.
                                                       4x
|-----0-------0---|-----0-------0---|-----3------------||
|-1-------3-------|-1-------3-------|-0-------1---0---o||
|---2---2-------2-|---0---0---0---0-|-------0---0---0--||
|-3---3---3-3-3---|-----3-----------|---0-0---2---0----||
|-----------------|-3-------3---3---|-----------------o||
|-----------------|-----------------|-3----------------||


  4.

|-------3-----------|-----0-------0---|-----0-------0----|
|-0---0---1---2s3---|-1-------3-------|-1-------3--------|
|-----------0-----0-|---0---0---0---0-|---2---2-------2--|
|---0-----2---2s3---|-----2-------2---|-3---3-----3-3----|
|-------------------|-3-------3-------|------------------|
|-3-----------------|-----------------|------------------|



|-----0-------0---|-----3-------------|-----0---3-----*|
|-1-------3-------|-0-------1---2s3---|-------1---1---*|
|---0---0---0---0-|---0---0---0-----0-|---0-----------*|
|-----2-------2---|---------2---2s3---|---------------*|
|-3-------3-------|-------------------|-3-------------*|
|-----------------|-3-----------------|---------------*|
            
Submit corrections

comments powered by Disqus
↑ Back to top | Israel Kamakawiwoole Tabs for Kaleohano. Lyrics for acoustic guitar and electric guitar. Tablatures and chords are parodies/interpretations of the original songs. You may use it for private study, scholarship, research or language learning purposes only