» » »

Revolver Tabs (ver.1)

Artists:  A B C D E F G H I J K L M N O P Q R S T U V W X Y Z # 

Revolver Tabs (ver.1)

Isobel Campbell And Mark Lanegan
Rating:
3/5 (2 votes)

Hard to play? Try these video lessons and learn fast.
                
Intro & Solo part: See tab

C
Now after all, don't feel like nothing 
             G
like walking away 
                     C
like a mouth full of rain 

at twelve o clock 

the bell starts ringing 
             G
a dog starts barking 
                 C
and you're still missing 
              G
still missing something 
                   C
you've never known what it was 


and I'm not one for thinking twice 
but I know this much is true 
the earth will turn, the pot'll burn 
and you are my revolver 

just waking up 
some dogs start barking 
a bell starts ringing 
and you're still missing 

and after all, don't feel like nothing 
like walking away 
like a mouth full of rain 
I'm holding on 
'cause you're my revolver 
and I dreamed of ending 
and flying away


Tuning: standard
  Intro:
e|---------------------------|
B|----4-----3-----4-----3----|
G|---5-5---5-5---5-5---5-5---|
D|--5---5-5---5-5---5-5---5--|x2
A|-3-----3-----3-----3-------|
E|---------------------------|

  Solo:
e|-------------------------------------|
B|-------------------------3h4-4-4/6---|
G|3/5----------------------------------|
D|-------------------------------------|
A|-------------------------------------|
E|-------------------------------------|

e|-------------------------------------|
B|6p4\3-3h4----------------4p3---------|
G|-------------------------------3/5---|
D|-------------------------------------|x2
A|-------------------------------------|
E|-------------------------------------|
  
  Lyrics:   C5
e|-----------------------------------------------|
B|-----------------------------------------------|
G|----5----5----5----5----5----5----5----5-------|
D|--5----5----5----5----5----5----5----5---------|
A|3----3----3----3----3----3----3----3-----------|
E|-----------------------------------------------|
                                     Now after all
  G5                       C5        
e|-----------------------------------------------|
B|-----------------------------------------------|
G|------------------------------5----5----5----5-|
D|----5----5----5----5--------5----5----5----5---|
A|--5----5----5----5--------3----3----3----3-----|
E|3----3----3----3-------------------------------|
  away.like a mouth full of rain

  Alternative
  C                        G
e|------------------------|----------------------------|
B|-----1-----1-----1-----1|------0------0------0------0|
G|---0-----0-----0-----0--|----0------0------0------0--|
D|------------------------|----------------------------|
A|3-----3-----3-----3-----|----------------------------|
E|------------------------|3------3------3------3------|


Have fun and get your girlfriend 2 sing along.
            
Hard to play? Try these video lessons and learn fast. | Correct




comments powered by Disqus
↑ Back to top | Tablatures and chords are parodies/interpretations of the original songs. You may use it for private study, scholarship, research or language learning purposes only