» » »

Volcanoes Bass tabs (ver.1)

Artists:  A B C D E F G H I J K L M N O P Q R S T U V W X Y Z # 

Volcanoes Bass tabs (ver.1)

Islands
Rating:
0/5 (0 votes)

Hard to play? Try these video lessons and learn fast.
                Islands
'Return to the Sea' 2006
 

"i was killed in 1936, by my brother. I'm a demon. i want you to know that
the world

    INTRO (0:12)
G ||--------------------------------|--------------------------------|
D ||------------------------6-------|7-------7-------7-------7-------|
A ||----------------7---9-------7---|----------------------------7---|
E ||--------------------------------|--------------------------------|
        is going to end in two thousand and seven
  |---------------------------------|--------------------------------|
  |---------------------------------|--------------------------------|
  |-------------------------4-------|5-------5-------5-------4---5---|
  |-5-------5-------5---7-------5---|--------------------------------|
			   there is a very  large    active volcano 
  |---------------------------------|--------------------------------|
  |-------------------------6-------|7-------7-------7-------7-------|
  |-7-------7-------7---9-------7---|----------------------------7---|
  |---------------------------------|--------------------------------|
   underground	  the world is going to go  into a  global  winter 
  |---------------------------------|--------------------------------|
  |---------------------------------|--------------------------------|
  |-------------------------4-------|5-------5-------5-------4---5---|
  |-5-------5-------5---7-------5---|--------------------------------|
       going to be 		no   dust and the world is going to
  |---------------------------------|
  |-------------------------6-------|
  |-7-------7-------7---9-------7---|
  |---------------------------------|
   freeze"       in trouble with the 

  VERSE (0:30)
   A
||----------------------------------|--------------------------------|
||*-7-------7-------7-------7-------|--------------------------------|
||*-----------------------------7---|------------------------4-------|
||----------------------------------|5-------5-------5---7-------5---|
    dogs ...
     D					E			4 times
   |--------------------------------|---------------------------------||
   |--------------------------------|------------------------6-------*||
   |5-------5-------5-------4---5---|7-------7-------7---9-------7---*||
   |--------------------------------|---------------------------------||

    BRIDGE (1:02)
	C#m				D
  ||--------------------------------|---------------------------------|
  ||--------------------------------|---------------------------------|
  ||4---------------4-----------4---|5---------------5-------5---4----|
  ||--------4---------------4-------|--------5-----------5------------|
    Under  for      over       an     hour 
	Bm				E
   |--------------------------------|---------------------------------||
   |--------------------------------|------------------------6--------||
   |2---------------2-----------2---|7---------------7---9-------7----||
   |--------2---------------2-------|--------7------------------------||
     While lovers   hovered around		the   towel

    INTERLUDE (1:10)
	A
  ||--------------------------------|---------------------------------|
  ||7---------------7---------------|7---------------7---6---5---4----|
  ||--------7---------------7-------|--------7------------------------|
  ||--------------------------------|---------------------------------|
	D				E
   |--------------------------------|---------------------------------|
   |----------------------------4---|------------------------6--------|
   |5---------------5-------5-------|7---------------7---9-------7----|
   |--------5-----------5-----------|--------7------------------------|
	A
   |--------------------------------|---------------------------------|
   |7---------------7---------------|7---------------7-------7---6----|
   |--------7---------------7-------|--------7-----------7------------|
   |--------------------------------|---------------------------------|
	D				E
   |--------------------------------|---------------------------------||
   |4-------------------------------|------------------------6--------||
   |--------7-------5-------4-------|7---------------7---9-------7----||
   |--------------------------------|--------7------------------------||

    BRIDGE (1:25)
	C#m				D
  ||--------------------------------|---------------------------------|
  ||--------------------------------|---------------------------------|
  ||4---------------4-----------4---|5---------------5-------5---4----|
  ||--------4---------------4-------|--------5-----------5------------|
	Bm				E
   |--------------------------------|---------------------------------||
   |--------------------------------|------------------------6--------||
   |2---------------2-----------2---|7---------------7---9-------7----||
   |--------2---------------2-------|--------7------------------------||

    CHORUS no bass (1:34)
A                           F#m              C#m               D
We washed our mouths at the riverbed When we noticed something glowing
Bm	E		Bm	    E        A
It was growing		Things are going to change
    F#m               C#m	   D
Hot rainfalls made of magma melts Alaska
       Bm       E         Bm           E       A     F#m
And in icy Argentine they say now I've seen it all
Dm           E
Who knew? Volcanoes!

 ||---------------------------------|
 ||-------------------------6-------|
 ||-----------------7---9-------7---|
 ||---------------------------------|
		in trouble with the 

    VERSE 2 (2:10)

||----------------------------------|---------------------------------|
||*-7---------------7---------------|7--------------------------------|
||*---------7---------------7-------|--------7---------------4--------|
||----------------------------------|----------------5---7-------5----|
    gods					we   didn't  all
    do					ourselves    in	    funny how

   |--------------------------------|---------------------------------|
   |----------------------------4---|------------------------6--------|
   |5---------------5-------5-------|7---------------7---9-------7----|
   |--------5-----------5-----------|--------7------------------------|
    ways		     mis  behave    where the sun shine now
    things work    out   in the      end	I never learned to 

   |--------------------------------|---------------------------------|
   |7---------------7-----------7---|7--------------------------------|
   |--------7---------------7-------|--------7---------------4--------|
   |--------------------------------|----------------5---7-------5----|
    it's   gone				       i've been waiting for
	swim						    now i'm

   |--------------------------------|-----------------------------------||
   |--------------------------------|------------------------6---------*||
   |5---------------5-----------5---|7---------------7---9-------7-----*||
   |--------5---------------5-------|--------7--------------------------||
    so      long		now its dawn	   thought that we would
     wasted	    	    i'm	     too     old		Just


    BRIDGE (2:42)
	C#m				D
  ||--------------------------------|---------------------------------|
  ||--------------------------------|---------------------------------|
  ||4---------------4-----------4---|5---------------5-------5---4----|
  ||--------4---------------4-------|--------5-----------5------------|
    Hold    on 	  	for as       long as you     can

	Bm				E
   |--------------------------------|---------------------------------||
   |--------------------------------|------------------------6--------||
   |2---------------2-----------2---|7---------------7---9-------7----||
   |--------2---------------2-------|--------7------------------------||
	i'm so    afraid   to	     die


    CHORUS (2:50) no bass
A                           F#m              C#m               D
We washed our mouths at the riverbed When we noticed something glowing
Bm	E		Bm	    E        A
It was growing		Things are going to change
    F#m               C#m	   D
Hot rainfalls made of magma melts Alaska
       Bm       E         Bm           E       A     F#m
And in icy Argentine they say now I've seen it all
Dm           E
Who knew? Volcanoes!


    CHORUS 2 (the key change at 3:57)
	B				G#m
||----------------------------------|---------------------------------|
||*---------------------------------|---------------------------------|
||*-2---2---2---2---2---2---2---4---|---------------------------------|
||----------------------------------|4---4---4---4---4---4---4---7----|
      we washed our mouths  at the    river      bed	    when we
	hot hot  rainfalls 	     made of     magma
	Eb7				G#m
   |--------------------------------|---------------------------------|
   |--------------------------------|---------------------------------|
   |6---6---6---6---6---6---6---6---|4---4---4---4---4---4---2---2----|
   |--------------------------------|---------------------------------|
    noticed		   something glowing			and
		 melts	 	     Alaska		      and in
[1]	B				G#m
   |--------------------------------|---------------------------------|
   |--------------------------------|---------------------------------|
   |2---2---2---2---2---2---2---4---|---------------------------------|
   |--------------------------------|4---4---4---4---4---4---4---7----|
    it  was	growing		  things are 	 going  to
	Eb7				G#m
   |--------------------------------|-----------------------------------||
   |--------------------------------|----------------------------------*||
   |6---6---6---6---6---6---6---6---|4---4---4---4---4---4---4---2-----*||
   |--------------------------------|-----------------------------------||
    change			 yeah

[2]
   |--------------------------------|---------------------------------|
   |--------------------------------|---------------------------------|
   |2---2---2---2---2---2---2---4---|---------------------------------|
   |--------------------------------|6---4------2-------4---2---------|
    icy        Argentine		they say

   |--------------------------------|---------------------------------|
   |--------------------------------|---------------------------------|
   |--------------------------------|---------------------------------|
   |0---0---0---0---0---0---0---0---|12--12--12--12--12--12--12--12---|
	oh				a new volcano!

REPEAT CHORUS 2 PATTERN



Islands are Forever
            
Hard to play? Try these video lessons and learn fast. | Correct




comments powered by Disqus
↑ Back to top | Tablatures and chords are parodies/interpretations of the original songs. You may use it for private study, scholarship, research or language learning purposes only