» » »

Islands, The Arm Tabs (ver.1)

Artists:  A B C D E F G H I J K L M N O P Q R S T U V W X Y Z # 

The Arm Tabs (ver.1)

Islands Tabs
 Rating:
4.4/5 (7 votes)
The Arm lessons Tabs too difficult? Try these video lessons and learn fast
1
                intro guitar part
E|--------------------------------|
B|------------------5-5-----------|
G|---2--4/6/4--6-------6--4/2-----|
D|4-----------------------------4-|
A|--------------------------------|
E|--------------------------------|

B|----------------------------------|
G|---2--4/6/4--2--2/1----1----------|
D|4---------------------2------2----|
A|----------------------------------|
E|----------------------------------|

E|---------------------------------|
B|------------------5-5-7----------|
G|---2--4/6/4-4/6---------6~-------|
D|4--------------------------------|
A|---------------------------------|
E|---------------------------------|

E|----------------------------------|
B|----------------------------------|
G|---2--4/6/4--2--2/1----1----------|
D|4---------------------2------2----|
A|----------------------------------|
E|----------------------------------|

chords for first verse
F#min Bmin Dbmin F#min
F#min Bmin Emaj x2

Amaj Dmaj Amaj x2

Chorus
i play it Bmin to Dmaj before the riff part below, but i'm not sure if that's right.
E|2--2---------------------------------|
B|2--2---------------------------------|
G|2--2---------------------------------|
D|4--4---------------4-----------------|
A|4--4-----2--4--5---------------------|
E|2--2---------------------------------| x3

lead in to riff
E|----------------------------------|
B|-6-6-4-4-2-2-1-1------------------|
G|----------------------------------|
D|----------------------------------|
A|----------------------------------|
E|----------------------------------|

Riff again, then first part of verse
then this
chords
F#min Dbmin F#min Bmin Dmaj

E|----------------------------------|
B|----------------------------------|
G|------------6-4-6---4-------------|
D|-4--4-6-7---------7---3-----------|
A|---------------------------4------|
E|----------------------------------|

E|----------------------------------|
B|----------------------------------|
G|------------6-4-6----4----9-------|
D|-4--4-6-7---------4----7----------|
A|----------------------------------|
E|----------------------------------|

then some really fast stuff i couldn't figure out, while Dmaj is being played.

then it goes back to the "badass car crash" part

then Chorus again

lead up to riff again, but then there's a build up to it. the guitar is just playing 
of randomly in the key of F#min.
riff again,
then Verse
then there's a short break before it goes into the "you're mine, you're mine" part. 
for that are (all power chords)
Db Db Ab Ab Db Db A A E E Ab Ab A A A A E E B B

and it ends with a F#min to a Bmin
            
Submit corrections

comments powered by Disqus
↑ Back to top | Islands Tabs for The Arm. Lyrics for acoustic guitar and electric guitar. 1 Tablatures and chords are parodies/interpretations of the original songs. You may use it for private study, scholarship, research or language learning purposes only