>
 >
The Beginning And The End

The Beginning And The End Guitar Tabs

Isis - The Beginning And The End chords, tabs, tablatures, lyrics

Guitar lessons | Add/correct | Request | Top 50 tabs Artists:  A B C D E F G H I J K L M N O P Q R S T U V W X Y Z 0-9

The Beginning And The End Guitar Tabs – Isis

CD, Sheet music, Poster

Do you like The Beginning And The End? Share with your friends now
Bass TabsTabs
-----------------------------------------------------------------------------
                     The Beginning of the End - Isis
-----------------------------------------------------------------------------


Tuning:Drop B

No one seems to want to do any Isis tabs so here you go. All questions and
comments are welcome.

|------------------------------------------------------------------------|
|-------------------------------------------------------8--8--8-----8----|
|----9--9-----9-----9-----------9--------9--9-----9-----5--5--5-----5----|
|----7--7-----7-----7-----------7--------7--7-----7----------------------|
|-0--------0-----0-----0--0--0-----0--0--------0-----0-----------0-----0-|
|------------------------------------------------------------------------|
  x        x     x     x  x  x     x  x        x     x           x     x
|--------------------------------------------------------------|
|--------------------------------------------------------------|
|--------------------------------------------------------------|
|-7--7--7----7----9--7--7----7----9--10-9----9----9--7--7----7-|
|-5--5--5----5----7--5--5----5----7--8--7----7----7--5--5----5-|
|--------------------------------------------------------------|

|------------------------------------------------------------------------|
|-------------------------------------------------------8--8--8-----8----|
|----9--9-----9-----9-----------9--------9--9-----9-----5--5--5-----5----|
|----7--7-----7-----7-----------7--------7--7-----7----------------------|
|-0--------0-----0-----0--0--0-----0--0--------0-----0-----------0-----0-|
|------------------------------------------------------------------------|
  x        x     x     x  x  x     x  x        x     x           x     x
|--------------------------------------------------------------|
|--------------------------------------------------------------|
|--------------------------------------------------------------|
|-7--7--7----7----9--7--7----7----9--10-9----9----9--7--7----7-|
|-5--5--5----5----7--5--5----5----7--8--7----7----7--5--5----5-|
|--------------------------------------------------------------|


|---------------------------|
|-10-10-8888----------------|
|------------9-9-1010101010-|
|---------------------------|
|---------------------------|
|---------------------------|

|------------------------------------------------------------------------|
|-------------------------------------------------------8--8--8-----8----|
|----9--9-----9-----9-----------9--------9--9-----9-----5--5--5-----5----|
|----7--7-----7-----7-----------7--------7--7-----7----------------------|
|-0--------0-----0-----0--0--0-----0--0--------0-----0-----------0-----0-|
|------------------------------------------------------------------------|

|--------------------------------------------------------------|
|--------------------------------------------------------------|
|--------------------------------------------------------------|
|-7--7--7----7----9--7--7----7----9--10-9----9----9--7--7----7-|
|-5--5--5----5----7--5--5----5----7--8--7----7----7--5--5----5-|
|--------------------------------------------------------------|

|------------------------------------------------------------------------|
|-------------------------------------------------------8--8--8-----8----|
|----9--9-----9-----9-----------9--------9--9-----9-----5--5--5-----5----|
|----7--7-----7-----7-----------7--------7--7-----7----------------------|
|-0--------0-----0-----0--0--0-----0--0--------0-----0-----------0-----0-|
|------------------------------------------------------------------------|

|--------------------------------------|
|--------------------------------------|
|--------------------------------------|
|-10-10-10-9-10-9-12-12-10-10-10-12/14-|
|-----------------------------10-12/14-|
|-----------------------------10-12/14-|

|---------------------------------------------------------------|
|---------------------------------------------------------------|
|---------------------------------------------------------------|
|-77--7-77--7-77--7-77--7-1010--12-1212--10-1010--1212-10-12/14-|
|-77--7-77--7-77--7-77--7-1010--12-1212--10-1010--1212-10-12/14-|
|-77--7-77--7-77--7-77--7-1010--12-1212--10-1010--1212-10-12/14-|

|------------------------------------------------------------------|
|------------------------------------------------------------------|
|------------------------------------------------------------------|
|-77--7-77--7-77--7-77--7-1010--12-1212--10-1010--1212-10-12/14-14-|
|-77--7-77--7-77--7-77--7-1010--12-1212--10-1010--1212-10-12/14-14-|
|-77--7-77--7-77--7-77--7-1010--12-1212--10-1010--1212-10-12/14-14-|

Guitar 1
|-----------------------------------------------------------------|
|-----------------------------------------------------------------|
|-10h12-9\7-5---------------------10h12-9\7-5---------------------|2x
|---------------------------------------------00-0-00-0-00-0-00-0-|
|-------------00-0-00-0-00-0-00-0---------------------------------|
|-----------------------------------------------------------------|
|                                                                 |
Guitar 2                                                          |
|-----------------------------------------------------------------|
|-----------13---15-------12h13-12-----12--13---15-------12h13-12-|
|-------------------12-10----------9h10------------12-10----------|
|-----------------------------------------------------------------|
|-----------------------------------------------------------------|
|-----------------------------------------------------------------|

Guitar 1
|-----------------------------------------------|----only---|
|-----------------------------------------------|---played--|
|-----------------------------------------------|---first---|
|-----------------------------------------------|----time---|2x
|-----------------------------------------------|-----------|
|-77-7-77--7-77--7-77--7-1010--10-1010--10-1212-|-12-1212---|
|                                                           |
Guitar 2                                                    |
|-----------------------------------------------------------|
|-----------------------------------------------------------|
|------------9--10-7---------9--10--------------------------|
|-7-7-9-10-----------7-9-10---------------------------------|
|-----------------------------------------------------------|
|-----------------------------------------------------------|

Guitar 1
|-----------------------------------------------------------------|
|-----------------------------------------------------------------|
|-10h12-9\7-5---------------------10h12-9\7-5---------------------|2x
|---------------------------------------------00-0-00-0-00-0-00-0-|
|-------------00-0-00-0-00-0-00-0---------------------------------|
|-----------------------------------------------------------------|
|                                                                 |
Guitar 2                                                          |
|-----------------------------------------------------------------|
|-----------13---15-------12h13-12-----12--13---15-------12h13-12-|
|-------------------12-10----------9h10------------12-10----------|
|-----------------------------------------------------------------|
|-----------------------------------------------------------------|
|-----------------------------------------------------------------|

Guitar 1
|-----------------------------------------------|----only---|
|-----------------------------------------------|---played--|
|-----------------------------------------------|---first---|
|-----------------------------------------------|----time---|2x
|-----------------------------------------------|-----------|
|-77-7-77--7-77--7-77--7-1010--10-1010--10-1212-|-12-1212---|
|                                                           |
Guitar 2                                                    |
|-----------------------------------------------------------|
|-----------------------------------------------------------|
|------------9--10-7---------9--10--------------------------|
|-7-7-9-10-----------7-9-10---------------------------------|
|-----------------------------------------------------------|
|-----------------------------------------------------------|

|-------------------------------------------------------------------|
|-------------------------------------------------------------------|
|-9-9-9-101010107--9-9-9-101010107--9-9-9-10101010121212-10101010-7-|
|-7-7-7-7-7-7-7-7--7-7-7-7-7-7-7-7--7-7-7-7-7-7-7-101010-7-7-7-7--7-|
|-------------------------------------------------------------------|
|-------------------------------------------------------------------|

Guitar 1
|--------------------------------------------------------|
|--------------------------------------------------------|
|--------------------------------------------------------|
|--------------------------------------------------------|
|--------------------------------------------------------|
|-77-7-77--7-77--7-77--7-1010--10-1010--10-1212--12-1212-|

Guitar 2
|-------------------------|
|-------------------------|
|-14-14-14-14-14-12-12-12-|4x
|-------------------------|
|-------------------------|
|-------------------------|
  x  x  x  x  x  x  x  x

|-------------------------|
|-------------------------|
|-14-14-14-12-12-15-15-12-|4x
|-------------------------|
|-------------------------|
|-------------------------|

Guitar 1
|--------------------------------------------------------|
|--------------------------------------------------------|
|--------------------------------------------------------|
|--------------------------------------------------------|
|--------------------------------------------------------|
|-77-7-77--7-77--7-77--7-1010--10-1010--10-1212--12-1212-|

Guitar 2
|-------------------------|
|-------------------------|
|-14-14-14-14-14-12-12-12-|4x
|-------------------------|
|-------------------------|
|-------------------------|
  x  x  x  x  x  x  x  x

|-------------------------|
|-------------------------|
|-14-14-14-12-12-15-15-12-|4x
|-------------------------|
|-------------------------|
|-------------------------|

Guitar 1
|--------------------------------------------------------|
|--------------------------------------------------------|
|--------------------------------------------------------|
|--------------------------------------------------------|
|--------------------------------------------------------|
|-77-7-77--7-77--7-77--7-1010--10-1010--10-1212--12-1212-|

Guitar 2
|-------------------------|
|-------------------------|
|-14-14-14-14-14-12-12-12-|4x
|-------------------------|
|-------------------------|
|-------------------------|
  x  x  x  x  x  x  x  x

|-------------------------|
|-------------------------|
|-14-14-14-12-12-15-15-12-|4x
|-------------------------|
|-------------------------|
|-------------------------|

|-------------------------------------------------|
|-13-13-13-15-15-13-13-13---13-13--15-15-13-13-13-|
|-------------------------------------------------|
|-------------------------------------------------|
|-------------------------------------------------|
|-------------------------------------------------|

|-15-15-15-----------------15-15-15----------------|
|----------15-15-13-13-13-----------15-15-13-13-13-|
|--------------------------------------------------|
|--------------------------------------------------|
|--------------------------------------------------|
|--------------------------------------------------|

|-------------------------------------------------|
|-13-13-13-15-15-13-13-13---13-13--15-15-13-13-13-|
|-------------------------------------------------|
|-------------------------------------------------|
|-------------------------------------------------|
|-------------------------------------------------|

|-15-15-15-----------------15-15-15----------------|
|----------15-15-13-13-13-----------15-15-13-13-13-|
|--------------------------------------------------|
|--------------------------------------------------|
|--------------------------------------------------|
|--------------------------------------------------|

|-------------------------------------------------|
|-13-13-13-15-15-13-13-13---13-13--15-15-13-13-13-|
|-------------------------------------------------|
|-------------------------------------------------|
|-------------------------------------------------|
|-------------------------------------------------|
  x  x  x  x  x  x  x  x    x  x   x  x  x  x  x          >4x
|-15-15-15-----------------15-15-15----------------|
|----------15-15-13-13-13-----------15-15-13-13-13-|
|--------------------------------------------------|
|--------------------------------------------------|
|--------------------------------------------------|
|--------------------------------------------------|
  x  x  x  x  x  x  x  x   x  x  x  x  x  x  x  x


These two guitar parts played at the same time, 4 times
Guitar 1
|--------------------------------------------------|
|-13-13-13-15-15-13-13-13---13-13--15-15-13-13-13--|
|--------------------------------------------------|
|--------------------------------------------------|
|--------------------------------------------------|
|--------------------------------------------------|
|                                                  |
|-15-15-15-----------------15-15-15----------------|
|----------15-15-13-13-13-----------15-15-13-13-13-|
|--------------------------------------------------|played last 5 times
|--------------------------------------------------|
|--------------------------------------------------|
|--------------------------------------------------|
Guitar 2
|----------------------------------|
|----------------------------------|
|----------------------------------|
|-7-7--9-9--7-7-7--7-7--9-9--7-7-7-|
|-7-7--9-9--7-7-7--7-7--9-9--7-7-7-|
|-7-7--9-9--7-7-7--7-7--9-9--7-7-7-|
|                                  |
|----------------------------------|
|----------------------------------|
|-12-12----------------------------|
|-10-10-1212-1010--1010-1212-1010--|
|-------1212-1010--1010-1212-1010--|
|-------1212-1010-------1212-1010--|

|----------------------------------------------|
|----------------------------------------------|
|----------------------------------------------|
|-77--7-77--7-77--7-77--7-77--7-77--7-77--7-77-|
|-77--7-77--7-77--7-77--7-77--7-77--7-77--7-77-|
|-77--7-77--7-77--7-77--7-77--7-77--7-77--7-77-|


|-----------------------------------------------------------------------|
|-----------------------------------------------------------------------|
|-----------------------------------------------------------------------|
|-7-1010--12-1212--10-1010--12-1212--10-1010--12-1212--10-1010--12-1212-|
|-7-1010--12-1212--10-1010--12-1212--10-1010--12-1212--10-1010--12-1212-|
|-7-1010--12-1212--10-1010--12-1212--10-1010--12-1212--10-1010--12-1212-|

|--------------------------------------------------|
|--------------------------------------------------|
|--------------------------------------------------|
|-10-1010--14-1414--10-1010--12-1212--10-1010--14-1414--10-1010--12-1212-|
|-10-1010--14-1414--10-1010--12-1212--10-1010--14-1414--10-1010--12-1212-|
|-10-1010--14-1414--10-1010--12-1212--10-1010--14-1414--10-1010--12-1212-|

|-------------------------------------|
|-------------------------------------|
|-------------------------------------|
|-14-1414--14-1414--14-1414---14-1414-|2x
|-14-1414--14-1414--14-1414---14-1414-|
|-14-1414--14-1414--14-1414---14-1414-|

|-------------------------------------------------|
|-13-13-13-15-15-13-13-13---13-13--15-15-13-13-13-|
|-------------------------------------------------|
|-------------------------------------------------|
|-------------------------------------------------|
|-------------------------------------------------|
  x  x  x  x  x  x  x  x    x  x   x  x  x  x  x       >4x
|-15-15-15-----------------15-15-15----------------|
|----------15-15-13-13-13-----------15-15-13-13-13-|
|--------------------------------------------------|
|--------------------------------------------------|
|--------------------------------------------------|
|--------------------------------------------------|
  x  x  x  x  x  x  x  x   x  x  x  x  x  x  x  x

|--------------------------------------------------|
|--------------------------------------------------|
|--------------------------------------------------|
|-12-12-12-14-14-14-14-12--12-12-12-15-15-14-14-12-|
|--------------------------------------------------|
|--------------------------------------------------|

|----|
|----|
|----|
|-14-|
|----|
|----|

|-------|
|-------|
|-------|12x
|-12-10-|
|-------|
|-------|

| /  slide up
| \  slide down
| h  hammer-on
| p  pull-off
| ~  vibrato
| +  harmonic
| x  Mute note
=============================================================================





Comments


Popular Isis tabs & chords
Altered Course Bass Tabs
Backlit Bass Tabs
From Sinking Bass Tabs
Backlit Intro Tabs
Carry Tabs
False Light Tabs
Garden Of Light Tabs
In Fiction 1 Tabs
Not In Rivers, But In Drops 1 Tabs
Poison Eggs Tabs


Song lyrics



↑ Back to top | Tablatures and chords are parodies/interpretations of the original songs. You may use it for private study, scholarship, research or language learning purposes only
© 2014 AZChords.com Contact us | Privacy policy | DMCA | Add/correct tabs | Request tabs | Top 50 tabs