>
 >
The Beginning And The End

The Beginning And The End Bass Tabs

Isis - The Beginning And The End chords, tabs, tablatures, lyrics

Guitar lessons | Add/correct | Request | Top 50 tabs Artists:  A B C D E F G H I J K L M N O P Q R S T U V W X Y Z 0-9

The Beginning And The End Bass Tabs – Isis

CD, Sheet music, Poster

Do you like The Beginning And The End? Share with your friends now
Bass TabsTabs
Band: Isis
Tuning: EBGbDb  or   EBF#C#  same thing


E |----------------------------4-4-4---------------------------------------------|
B |--6-6--6-6-------6---6-6--6-------6---------6---------6---------6-------------|
Gb|-------------------------------------4-4-4-4-4-6-4-4-4-4-6-7-6-4-4-6-4-4-224--|
Db|4-----4-4--4-4-4--44-----4-4-----4-4------------------------------------------|x2


0:40
E |----------------------------4-4-4---------------------------------------------|
B |--6-6--6-6-------6---6-6--6-------6---------6---------6---------6-------------|
Gb|-------------------------------------4-4-4-4-4-6-4-4-4-4-6-7-6-4-4-6-4-4-224--|
Db|4-----4-4--4-4-4--44-----4-4-----4-4------------------------------------------|

E |----------------------------4-4-4----------------------------|
B |--6-6--6-6-------6---6-6--6-------6--6-6-6-666------------1--|
Gb|-----------------------------------------------4-4-2----2----|
Db|4-----4-4--4-4-4--44-----4-4-----4-4------------------4------|


1:11
E |-------------------------------------------------------------------|
B |-------------------------------1-------------------------------11--|
Gb|----------------22-222-244--2-2-----------------22-222-244--2-2----|
Db|44-444-444-444-4-----------4-4--44-444-444-444-4-----------4-4-----|


1:30
E |---------------------------------------8118---------------------------------------|
B |-------------------------------------------11-11-11--11-11-11--11-11-11--11-11-11-|
Gb|11-11--11-11-11--11-11-11--11-11-11--11-------------------------------------------|
Db|----------------------------------------------------------------------------------|

E |--8118------------------8118-----------------------------------------------------|
B |11----1199-999-999-999-9----11-11-11--11-11-11--11-11-11--11-11-11-11\66-666-666-|
Gb|---------------------------------------------------------------------------------|
Db|---------------------------------------------------------------------------------|

E |-----44-444-466-666-4----------------44-444-466-66(6-4----|second time ( )
B |666-6----------------66-666-666-666-6-----------------6)--|
Gb|----------------------------------------------------------|
Db|----------------------------------------------------------|x2 (from 1:30)


2:45
E |----------------------------------|
B |----------------------------------|
Gb|66677776666777766667777666677776--|
Db|----------------------------------|


2:54
E |---------------------------------------------------------------------------|
B |------------------------------------------------------------------66666666-|
Gb|----------------22-222-244-444-2-----------------22-222-244-444-2----------|
Db|44-444-444-444-4-----------------44-444-444-444-4--------------------------|

E |--------4444444466666664--|
B |66666666------------------|
Gb|--------------------------|
Db|--------------------------|x3 (from 2:54)

E |----------------4444444466666664--|
B |6666666666666666------------------|
Gb|----------------------------------|
Db|----------------------------------|x2


4:25
E |--------------------------------6---4---6---4---6---4---6---4---|
B |6--4----6--4----6--4----6--4------------------------------------|
Gb|----------------------------------------------------------------|
Db|----------------------------------------------------------------|x2


4:59
E |-----------------------------------|
B |-----------------------------------|
Gb|-----------------------------------|
Db|444664444446644477-7-7-7-66-6-6-6--|x4


5:32
E |-----------------------------------------------------------------------|
B |-----------------------------------------------------------------------|
Gb|--------------------------------22-444-222-444-222-444-222-444-222-666-|
Db|44-444-444-444-444-444-444-444-4---------------------------------------|

E |---------------------------------------------------------|
B |---------------------------------------------------------|
Gb|222-444-222-666-222-444-666-666-666-666-666-666-666-666--|
Db|---------------------------------------------------------|


6:04
E |--------------------------------6---4---6---4---6---4---6---4--|
B |66-4--4-66-4--4-66-4--4-66-4--4--------------------------------|
Gb|-----6-------6-------6-------6---------------------------------|
Db|-------4-------4-------4-------4-------------------------------|x3

E |6---4---6---4---6---4---6---4---6---4---6---4---6---4---6---4---6---4---6---4--|
B |-------------------------------------------------------------------------------|
Gb|-------------------------------------------------------------------------------|
Db|-------------------------------------------------------------------------------|x2


7:36
E |18---16---18---16---18---16---18---16---18---16---18---16--|
B |-----18------1618--------18------1618--------18------1618--|
Gb|18--------18--------18--------18--------18--------18-------|
Db|-----------------------------------------------------------|x2





Comments


Popular Isis tabs & chords
Altered Course Bass Tabs
In Fiction Bass Tabs
Carry Tabs
Carry 1 Tabs
False Light Tabs
Ghost Key Tabs
In Fiction Tabs
Not In Rivers, But In Drops Tabs
Not In Rivers, But In Drops 1 Tabs
The Beginning And The End Tabs


Song lyrics



↑ Back to top | Tablatures and chords are parodies/interpretations of the original songs. You may use it for private study, scholarship, research or language learning purposes only
© 2014 AZChords.com Contact us | Privacy policy | DMCA | Add/correct tabs | Request tabs | Top 50 tabs