» » »

Isis, So Did We Bass tabs (ver.1)

Artists:  A B C D E F G H I J K L M N O P Q R S T U V W X Y Z # 

So Did We Bass tabs (ver.1)

Isis Tabs
 Rating:
4/5 (5 votes)
So Did We lessons Tabs too difficult? Try these video lessons and learn fast
1
                -------------------------------------------------------------------------------
-------------------------------------------------------------------------------


Tuning: Standard - EADG

I'm definitely not sure on the tuning, as I read somewhere that Jeff Caxide uses much 
and different tunings, such as BFG#E or something like that. But this song is still 
without having to spend half an hour tuning your bass weird.

Intro
0:00 - 0:30

G|---------------------------------------------------|
D|---------------------------------------------------|
A|-4-4-4444-4-4-44-4-4444-4-4-4----------------------|
E|------------------------------22222222222222222222-| x2

3rd time through play this:

G|-----------------------------------------------------|
D|-----------------------------------------------------|
A|-4-4-4444-4-4-44-4-4444-4-4-4------------------------|
E|------------------------------222222222222/555555555-| x1

Riff 1a
0:30 - 0:45

G|------------------------|---------------------------|
D|------------------------|---------------------------|
A|------------------------|---------2------------2----|
E|-2/4---2/4---2/4---2/4--|-2-2h4-4---2--2-2h4-4---2--| x1

Interlude
0:45 - 0:58

G|-------------------------------------------------------------------------------|
D|-------------------------------------------------------------------------------|
A|-------------------------3-/-5-------------5-/-7-------------3-/-5-------7-\-3-|
E|-2/4---2/4---2/4---2/4\0-------2/4---2/4\0-------2/4---2/4\0-------2/4\0-------|

Riff 1b
0:59 - 1:11

G|------------------------|---------------------------|
D|------------------------|---------------------------|
A|------------------------|---------2------------2----|
E|-2/4---2/4---2/4---2/4--|-2-2h4-4--42--2-2h4-4--42--| x1

Play interlude again
1:12 - 1:26

Transition
1:27 - 1:37

G|----------------------|---------------------|
D|----------------------|---------------------|
A|----------------------|---------------------|
E|--4444-4444-4444-4444-|-4444-4444-4444-4444-| x1

Riff 1c
1:38 - 2:19

G|---------------------------------|------------------------------|
D|---------------------------------|------------------------------|
A|---------------------------------|--------2-------------2-------|
E|-2h444-4-2h444-4-2h444-4-2h444-4-|-2-2h4-4---2h4-2-2h4-4---2h4\-| x4

Riff 2
2:20 - 3:00

G|----------------|----------------------------------------|
D|----------------|----------------------------------------|
A|----------------|---------------4-4-4-4-4-4-4-4-4-4-4-4--|
E|--4444-4-4444-4-|-2222-2-2222-2--------------------------| x3

4th time through play this variation:

G|----------------|----------------------------------------|
D|----------------|----------------------------------------|
A|----------------|---------------4-4-4-4-4-4-4-4-4-4-4-4--|
E|--4444-4-4444-4-|-4444-4-2222-2--------------------------| x1

Riff 3a
3:01 - 3:20

G|-------------------------|--------------------------|
D|-------------------------|--------------------------|
A|-4--4-44-4-4-4--4-44-4-4-|-2--2-22-2-2-2--2-22-2-2--|
E|-------------------------|--------------------------| x2

Riff 3b
3:21 - 3:41

G|-------------------------|-4444-44-----4444-44-----|
D|---------4-2---------2-4-|---------4-2---------4-2-|
A|-4--4-44-----4--4-44-----|-------------------------|
E|-------------------------|-------------------------| x2

Riff 4a
3:42 - 4:11

G|--------------------------------------------------------|
D|-----------------------------------/7\-4--4---/-7--7----|
A|-4-4-4--2-4-4-4--2-4-4-4--2-4-4-4-----------------------|
E|--------------------------------------------------------| x2

Riff 4b
4:12 - 5:44

G|--------------------------------------------------------|
D|-----------------------------------/7\-4-4-4--2/7-7-7--9|
A|-4-4-4--2-4-4-4--2-4-4-4--2-4-4-4-----------------------|
E|--------------------------------------------------------| x4

5th time through play this variation:
5:29 - 5:44

G|------------------------------------------------------------|-------|
D|-------------------------------/777777\-4-4-4h7-4-4/7-7-7-7h|9-7-6h7|
A|-4-4-4--2-4-4-4--2-4-4-4--2-4-4-----------------------------|-------|
E|------------------------------------------------------------|-------| x1
                                                                 ^
                                                                 |
Riff 4c                                                         fast
5:45 - 6:14
                                                                                         
                                                              x2
G|----------------------|------------------------------------------------|-------|
D|----------------------|------------------------/7\-4-4-4h7-4-4/7-7-7-7h|9-7-6h7|
A|-4-4-4--2-4-4-2h4-2h4-|-2-4-4-4--2-4-4-2h4-2h4-------------------------|-------|
E|----------------------|------------------------------------------------|-------|

Riff 4d
6:15 - 7:16

G|-------------------------|-------------------------|-------|
D|-------------------------|--7\-4-4-4h7-4-4/7-7-7-7h|9-7-6h7|
A|-4-4-4--2-2--4-4-4/7-7777|-------------------------|-------|
E|-------------------------|x2-----------------------|-------| x4

Fade out:

G|----------------|
D|----------------|
A|-4--------------|
E|----------------|

Good luck remembering all that. Rock On!

| /  slide up
| \  slide down
| h  hammer-on
| p  pull-off
| ~  vibrato
| +  harmonic
| x  Mute note
===============================================================================
            
Submit corrections

comments powered by Disqus
↑ Back to top | Isis Bass for So Did We. Lyrics for acoustic guitar and electric guitar. 1 Tablatures and chords are parodies/interpretations of the original songs. You may use it for private study, scholarship, research or language learning purposes only