» » »

Isis, In Fiction Bass tabs (ver.1)

Artists:  A B C D E F G H I J K L M N O P Q R S T U V W X Y Z # 

In Fiction Bass tabs (ver.1)

Isis Tabs
 Rating:
3.7/5 (6 votes)
In Fiction lessons Tabs too difficult? Try these video lessons and learn fast
                -------------------------------------------------------------------------------
-------------------------------------------------------------------------------


Tuning: Standard (EADG)

The intro is variations on the part that starts at 2:08, but it's very random, so I 
haven't tabbed it out.

2:08

G|-16-16-16-16-16-|-14-14-14--14-14-12-12--12-11-11-12-|
D|----------------|------------------------------------|
A|----------------|------------------------------------|
E|----------------|------------------------------------|
                                                              x6
G|-11-11---11-|-11-11---11-12-11--14--14-12-|-12-|
D|------------|-----------------------------|----|
A|------------|-----------------------------|----|
E|------------|-----------------------------|----|


3:40
G|-----------------9-9-9-11-11-11-12-|-----------------11-11-11-14-14-14-14------|
D|-9-9-9-9-9-9-9-9-------------------|-9-9-9-9-9-9-9-9---------------------------|
A|-----------------------------------|------------------------------------------|  x8
E|-----------------------------------|-------------------------------------------|

4:43
G|-------2--------------------|
D|--------------------2---0-4-|
A|-2--2----2--2--2--2---2-----|  x8
E|----------------------------|

5:13
G|-----------|
D|-----------|
A|-2-2-2-14\-|  x8
E|-----------|

5:30
G|---2-----2-----2-----2----7-7-7-7-|---2-----2-----2-----2-----------|
D|----------------------------------|-------------------------0-0-0-0-|
A|-2---2-2---2-2---2-2---2----------|-2---2-2---2-2---2-2---2---------|  x2
E|----------------------------------|---------------------------------|

5:45
G|----------------------------------------|--------------------------------------|
D|-9-9-9-9-9-9-9-9-12-12-12---------------|-9-9-9-9-9-9-9-9-12-------------------|
A|--------------------------10-10-10-10-9-|--------------------10-10-10-10-9-9-9-|  x4
E|----------------------------------------|--------------------------------------|

6:17
G|-------------------14--14----|
D|-9----9/12-12--12---------14-|
A|-----------------------------|  x12
E|-----------------------------|

6:59
G|---------------------------------|----------------------------------------|
D|---------------------------------|-9-9-9-9-12-12-12-12--------------------|
A|-5-5-5-5-5-5-5-5/7-7-7-7-7-7-7-7-|----------------------10-10-10-10-10-10-|  x4
E|---------------------------------|----------------------------------------|

7:33
G|---------------------|-----------------------------|
D|---------------------|-----------------------------|
A|-5-5-5-5-5/7-7-7-7-7-|-------5-5-5-5-------5-5-5-5-|  x4
E|---------------------|-0-0-0---------0-0-0---------|

8:01
G|---------|
D|-7-7-7-7-|
A|---------|  x4
E|---------|

8:10 (small variations in the timing in this one)
G|-------------|
D|-19-19-19-19-|
A|-------------|  x4
E|-------------|


8:22
G|-------------------14--14----|
D|-9----9/12-12--12---------14-|
A|-----------------------------|  x8
E|-----------------------------|

8:50
G|---|
D|-9-|
A|---|
E|---|


| /  slide up
| \  slide down
| h  hammer-on
| p  pull-off
| ~  vibrato
| +  harmonic
| x  Mute note
===============================================================================
            
Submit corrections

comments powered by Disqus
↑ Back to top | Isis Bass for In Fiction. Lyrics for acoustic guitar and electric guitar. Tablatures and chords are parodies/interpretations of the original songs. You may use it for private study, scholarship, research or language learning purposes only