» » »

Isis, Ghost Key Tabs (ver.1)

Artists:  A B C D E F G H I J K L M N O P Q R S T U V W X Y Z # 

Ghost Key Tabs (ver.1)

Isis Tabs
 Rating:
3.6/5 (7 votes)
Ghost Key lessons Tabs too difficult? Try these video lessons and learn fast
1
                DROP B TUNING
Hey I tabbed this great song by ear. Probably not right at all, but good enough lol.

INTRO:

C#----------------------------------------------|
G#----------------------------------------------|
E-------11--11-14-14-14---18-18-21-21-21p18-----|
B--12h14--14--------------------------------19--|
F#----------------------------------------------|
B-----------------------------------------------|


C#----------------------------------------------|
G#----------------------------------------------|
E-------11--11-14-14-14---18-18-21-21-21--------|
B--12h14--14------------------------------------|
F#----------------------------------------------|
B-----------------------------------------------|


C#----------------------------------------------|
G#----------------------------------------------|
E-------11--11-14-14-14---18-18-21-21-21p18-----|
B--12h14--14--------------------------------19--|
F#----------------------------------------------|
B-----------------------------------------------|


C#----------------------------------------------|
G#----------------------------------------------|
E-------11--11-14-14-14---18-18-21-21-21--------|
B--12h14--14------------------------------------|
F#----------------------------------------------|
B-----------------------------------------------|


RIFF AT 0:37

C#----------------------------9-----------------|
G#-12-14-17-12-14-17-12-14-17---12--------------|
E-----------------------------------------------|
B-----------------------------------------------|
F#----------------------------------------------|
B-----------------------------------------------|

C#----------------------------------------------|
G#-12-14-17-12-14-17--19-17-14-17-12------------|
E-----------------------------------------------|
B-----------------------------------------------|
F#----------------------------------------------|
B-----------------------------------------------|


C#----------------------------9-----------------|
G#-12-14-17-12-14-17-12-14-17---12--------------|
E-----------------------------------------------|
B-----------------------------------------------|
F#----------------------------------------------|
B-----------------------------------------------|

C#----------------------------------------------|
G#-12-14-17-12-14-17--19-17-14-17-12------------|
E-----------------------------------------------|
B-----------------------------------------------|
F#----------------------------------------------|
B-----------------------------------------------|

HEAVY RIFF AT 0:55

C#-------------------------------------------------|
G#-------------------------------------------------|
E-----4-----4--------4------4----------------------|
B----7-7------7-----5--5-----5---------------------|
F#-4------4-------2-------2------------------------|
B--4------4-------2-------2------------------------|


C#-------------------------------------------------|
G#-------------------------------------------------|
E-----4-----4--------4------4----------------------|
B----7-7------7-----5--5-----5---------------------|
F#-4------4-------2-------2------------------------|
B--4------4-------2-------2------------------------|

BACK TO INTRO RIFF AT 1:12
(REAPEAT ALL THIS ONCE MORE)


RIFF AT 2:25

C#----------------------------------------------------|
G#----------------------------------------------------|
E-----------------------------------------------------|
B----12-9----9-12-11----11-9---9-11-------------------|
F#-9-------9----------7------7------4-----------------|
B--9-------9----------7------7------4-----------------|


TREMELO PICKING RIFF AT 2:36


C#--14xxxxxxxxxxxxxxxxxxxxxxxxxxxxxxxxxxxxxxxxxxxxxx--|
G#----------------------------------------------------|
E-----------------------------------------------------|
B-----------------------------------------------------|
F#----------------------------------------------------|
B-----------------------------------------------------|


RIFF AT 3:14


C#--19-17-16-17p16------------------------------------|
G#----------------------------------------------------|
E-----------------------------------------------------|
B-----------------------------------------------------|
F#----------------------------------------------------|
B-----------------------------------------------------|


RIFF AT 4:23


C#----------------------------------------------------|
G#---6^---6/5----6^----6/5----------------------------|
E-----------------------------------------------------|
B-----------------------------------------------------|
F#-4----4------4-----4--------------------------------|
B--4----4------4-----4--------------------------------|


RIFF AT 4:32


C#----------------------------------------------------|
G#----------------------------------------------------|
E-----------------------------------------------------|
B-----------------------------------------------------|
F#--7--0--2--/7---------------------------------------|
B---7--0--2--/7---------------------------------------|


RIFF AT 5:45


C#----------------------------------------------------|
G#----------------------------------------------------|
E-----------------------------------------------------|
B---4h6-6-6/7-----------------------------------------|
F#----------------------------------------------------|
B-----------------------------------------------------|


RIFF AT 6:37


C#----------------------------------------------------|
G#--7h10-10-10-7--------------------------------------|
E-----------------------------------------------------|
B-----------------------------------------------------|
F#----------------------------------------------------|
B-----------------------------------------------------|

...Im sorry, I really cannot be stuffed tabbing the rest lol.
            
Submit corrections

comments powered by Disqus
↑ Back to top | Isis Tabs for Ghost Key. Lyrics for acoustic guitar and electric guitar. 1 Tablatures and chords are parodies/interpretations of the original songs. You may use it for private study, scholarship, research or language learning purposes only