>
 >
Garden Of Light

Garden Of Light Guitar Tabs

Isis - Garden Of Light chords, tabs, tablatures, lyrics

Guitar lessons | Add/correct | Request | Top 50 tabs Artists:  A B C D E F G H I J K L M N O P Q R S T U V W X Y Z 0-9

Garden Of Light Guitar Tabs – Isis

CD, Sheet music, Poster

Do you like Garden Of Light? Share with your friends now
Tabs
Band: Isis 
Tuning: Standard (They are tuned in drop-b, but you can play it that way)

0:00
Guitar I
|----------------------|---------------------|
|----------------4-----|----------------2----|
|------4-------4---4---|------4-------4---4--|
|----6---6---6---------|----6---6---4--------|
|--4-------------------|--7------------------|
|----------------------|---------------------|

Keyboard (or guitar II, if you want...)
|-----------------------|-----------------------|
|-----------------------|-----------------------|
|-----------------------|-----------------------|
|--11-------------------|--14-------16----------|
|-----------------------|-----------------------|
|-----------------------|-----------------------|

0:32
Guitar II
|-----------------------|-----------------------|x2
|-----------------------|-----------------------|
|--6--------------------|-----------------------|
|-----------------------|-----------------------|
|-----------------------|-----------------------|
|-----------------------|-----------------------|

|-----------------------|-----------------------|
|-----------------------|-----------------------|
|--6--------9-----------|--11-------------------|
|-----------------------|-----------------------|
|-----------------------|-----------------------|
|-----------------------|-----------------------|

|-----------------------|-----------------------|
|-----------------------|-----------------------|
|--6--------9-----------|--11-------9----8-9----|
|-----------------------|-----------------------|
|-----------------------|-----------------------|
|-----------------------|-----------------------|


1:04
Guitar I 
|-----------------------|----------------------|
|------------7---5------|---------------7--5---|
|-6---9---6-------------|-6-----9--------------|
|-----------------------|----------------------|
|-----------------------|----------------------|
|-----------------------|----------------------|

|---------------------|-----------------------|
|---------------------|-----------------------|
|-6--------------8-9--|-6---------------------|
|---------------------|-----------------------|
|---------------------|-----------------------|
|---------------------|-----------------------|

Guitar II
|-----------------------|
|-----------------------| 
|-----------------------|
|----------7------------|
|-4--7--4-----7---5-----|
|-------2---------------|

1:20
Guitar I (w/ tremolo picking)
|---------|---------|----------------|
|---------|---------|----------------|
|-9-------|-11------|-13----11-9-8---|
|---------|---------|----------------|
|---------|---------|----------------|
|---------|---------|----------------|

|---------|----------|-----------|----------|-------------|
|---------|--12------|-10--9-----|--7-------|-------------|
|--9------|----------|-----------|----------|--8--9-------|
|---------|----------|-----------|----------|-------------|
|---------|----------|-----------|----------|-------------|
|---------|----------|-----------|----------|-------------|

Guitar II
|-----------------------|-----------------------|
|-----12-----12---------|------12------14--12---|
|--13----13-----13------|--13------13-----------|
|-----------------------|-----------------------|
|-----------------------|-----------------------|
|-----------------------|-----------------------|


Guitar II
|-----------------------|
|-----------------------| 
|-----------------------|
|----------7------------|
|-4--7--4-----7---5-----|
|-------2---------------|

|-----------------------|
|-----------------------| 
|-----------------------|
|-----6--------7--------|
|--4-----7--4-----7--5--|
|-----------2-----------|

at the end:
|-----------------|
|-----------------| 
|-----------------|
|---7-------6/----|
|-----7--5--------|
|-----------------|

1:35
Distortion
|-----------------------|--------------------------|x3
|-----------------------|--------------------------|
|-----------------------|--------------------------|
|-4-4--4-4--4-4--4-4----|-4-4--4-4--4-4------------|
|-4-4--4-4--4-4--4-4----|-4-4--4-4--4-4------------|
|-2-2--2-2--2-2--2-2----|-2-2--2-2--2-2--5/7-3/5\--|

|-----------------------|--------------------------|
|-----------------------|--------------------------|
|-----------------------|--------------------------|
|-4-4--4-4--4-4--4-4----|-4-4--4-4--4-4------------|
|-4-4--4-4--4-4--4-4----|-4-4--4-4--4-4------------|
|-2-2--2-2--2-2--2-2----|-2-2--2-2--2-2------------|


2:04
|---------|---------|----------|---------------------|
|---------|---------|----------|---------------------|
|---------|---------|-7--------|---------------------|
|-9-------|-5-------|----------|--5-4----------4-----|
|---------|---------|----------|------2-5-2----4-----|
|---------|---------|----------|------------3--2-----|

|-----------------------|---------------------|
|-----------------------|---------------------|
|-----11--4---7---------|---------------------|
|-9---------------------|--5-4----------4-----|
|-----------------------|------2-5-2----4-----|
|-----------------------|------------3--2-----|

2:42
|--------------------|-----------------------|
|--------------------|-----------------------|
|--------------------|-----------------------|
|--4--4--4-----------|-2---------5-----------|
|--4--4--4-----------|-2---------5-----------|
|--2--2--2--//x\\----|-0---------3-----------|

2:49
|---------------------|-------------|
|---------------------|-------------|
|---------------------|-------------|
|--5-4----------4-----|-------------|
|------2-5-2----4-----|-------------|
|------------3--2-----|-------------|

|---------------------|x8
|---------------------|
|---------------------|
|--5-4----------4-----|
|------2-5-2----4-----|
|------------3--2-----|


|-----------------|-----------------|
|-----------------|-----------------|
|--4--------------|--4--(4)---------|
|--4--------------|--4--(4)---------|
|--2--------------|--2--(2)---------|
|--2----/-5-/-7---|--2--(2)--/-5/7--|


|-------------------|
|-------------------|
|--6--6--6--6--(6)--|
|--6--6--6--6--(6)--|
|--4--4--4--4--(4)--|
|--4--4--4--4--(4)--|

Sorry, I didn't have time to tab it out entirely this week, 
but I'll finish it and fix all my mistakes, i promise ^^
If someone could transcribe the drum parts, 
it would be very nice, because I really suck at drum programmation.





Comments


Popular Isis tabs & chords
Backlit Bass Tabs
From Sinking Bass Tabs
So Did We Bass Tabs
Carry Tabs
False Light Tabs
Ghost Key Tabs
In Fiction Tabs
In Fiction 1 Tabs
Not In Rivers, But In Drops Tabs
Not In Rivers, But In Drops 1 Tabs


Song lyrics



↑ Back to top | Tablatures and chords are parodies/interpretations of the original songs. You may use it for private study, scholarship, research or language learning purposes only
© 2014 AZChords.com Contact us | Privacy policy | DMCA | Add/correct tabs | Request tabs | Top 50 tabs