» » »

Isis, Backlit Bass tabs (ver.1)

Artists:  A B C D E F G H I J K L M N O P Q R S T U V W X Y Z # 

Backlit Bass tabs (ver.1)

Isis Tabs
 Rating:
4/5 (4 votes)
Backlit lessons Tabs too difficult? Try these video lessons and learn fast
1
                -----------------------------------------------------------------------------
-----------------------------------------------------------------------------

Tempo: 60 BPM
Tuning:Standard

intro (0:00) there is delay on
G|---------------------------|-------4------------------------|x3
D|---2-----------------------|---2----------------------------|
A|-2---2---6-----4-----2-----|-2-------------6-------4---2----|
E|---------------------------|--------------------------------|

G|---------------------------|-------44444444-----------------|x1
D|---2-----------------------|---2----------------------------|
A|-2---2---6-----4-----2-----|-2-------------6666666644442222-|
E|---------------------------|--------------------------------|

intro 2 (1:03) delay is now off
G|------------------------------------------------------------|x1
D|---2---2///131313---13-----13h161616------16p131313---13///-|
A|-2---2------------------------------------------------------|
E|------------------------------------------------------------|
 
G|------------------------------------------------------------|x1
D|------2-----------------------------------------------------|
A|-2---------2-----666----6-----6h999---9----9p666----6///----|
E|------------------------------------------------------------|

G|------------------------------------------------------------|x1
D|---2---2///131313---13-----13h161616------16p131313---13///-|
A|-2---2------------------------------------------------------|
E|------------------------------------------------------------|
 
G|------------------------------------------------------------|x1
D|---2---2----------------------------------------------------|
A|-2---2-----666-6-6-666-6-6-666-66-66-666-6666-66666666666666|
E|------------------------------------------------------------|

verse 1 (1:34)
G|----------------------------------------------------------------------------|x9
D|---2------------------------------------2-----------------------------------|
A|-2---2///7--7-777-7-7-777-7-77-777///-2---2///6-6-66-6-6-66-6-66-66-66-66666|
E|----------------------------------------------------------------------------|

rest 1(2:05)

interlude 1 (2:21) he is using his pedal con control his volume
 do do a kind of fade in effect.
G|4---------------------------|x2
D|---------6-----4-----2------|
A|----------------------------|
E|----------------------------|

verse 2 (2:37)                          
G|--------------------------------------|
D|--------------------------------------|
A|-666--66--6--66--6666/555-55-5-55-5555|
E|--------------------------------------|

the 9's and elevens are played continusly.
G|------------------------------------|x2
D|777--77--7h9-9-9-9h11-11-11-11------|
A|------------------------------------|
E|------------------------------------|

repeat verse 2 x3

G|------------------------------------|x4
D|------------------------------------|
A|777--77--7h9-9-9-9h11-11-11-11------|
E|------------------------------------|


interlude 2 (3:52)         x28                              x8

G|---------------------------|--------------------------------------------------|
D|---------------------------|--------------------------------------------------|
A|-2-----2---2-----2---2-----|-2------2--2--2--2------2--2-2-222//77777777771010|
E|---0-2-------0-2-------2-0-|---0--2------------0--2---------------------------|

end(5:58)

G|-------------------------------------------------------------------------------------|x4
D|-------------------------------------------------------------------------------------|
A|2------2--2--2--2------2--2-2-222//7-7-7-7-7-7-7-7-7-7-10-10-5-5-5-5-5-5-4-4-4-4-4-4-|
E|--0--2------------0--2---------------------------------------------------------------|
 |                                                                                     |
G|-------------------------------------------------------------------------------------|
D|-------------------------------------------------------------------------------------|
A|2------2--2--2--2------2--2-2-222//7-7-7-7-7-7-7-7-7-7-10-10-5-5-5-5-5-5-7-7-7-7-7-7-|
E|--0--2------------0--2---------------------------------------------------------------|

G|----------------------|x3
D|----------------------|
A|2------2--2------2--2-|
E|--0--2------0--2------|

G|-------------------------|
D|-------------------------|
A|2------2--2------2--2-2/-|
E|--0--2------0--2---------|

|--------------------------------------------------|
|some places may sound akward but its because they |
|usualy play in b. isis owns!!!                    |
|                                            kris  |
|--------------------------------------------------|

| =  let note ring
|/// long slide up or down
| /  slide up
| \  slide down
| h  hammer-on
| p  pull-off
| ~  vibrato
| +  harmonic
| x  Mute note
===============================================================================
            
Submit corrections

comments powered by Disqus
↑ Back to top | Isis Bass for Backlit. Lyrics for acoustic guitar and electric guitar. 1 Tablatures and chords are parodies/interpretations of the original songs. You may use it for private study, scholarship, research or language learning purposes only