» » »

I Set My Friends On Fire, Things That Rhyme With Orange Tabs (ver.1)

Artists:  A B C D E F G H I J K L M N O P Q R S T U V W X Y Z # 

Things That Rhyme With Orange Tabs (ver.1)

I Set My Friends On Fire Tabs
Rating:
4/5 (11 votes)
Things That Rhyme With Orange lessons Tabs too difficult? Try these video lessons and learn fast
                Things that Rhyme With Orange by I Set My Friends On Fire

An amazing song with a catchy guitar :)


Comment or message me if you gots questions.

Tuning:Drop C (CGCFAD)

The very first thing you play is:
|------------|
|---14h15----|
|------------|
|------------|
|------------|
|------------|


Intro
|---------------------------------------------------------------------------|
|---------------------------------------------------------------------------|
|---------------------------------------------------------------------------|
|----9-9-9---9-9-9-0-0-0---0-0-0-5-5-5---5-5-5-5-5-5---5-5-5----------------|
|----9-9-9---9-9-9-0-0-0---0-0-0-5-5-5---5-5-5-5-5-5---5-5-5----------------|
|----9-9-9---9-9-9-0-0-0---0-0-0-5-5-5---5-5-5-5-5-5---5-5-5----------------|(x2)[x2]

[The third and fourth time you play this, you palm mute everything and change up
your strumming rhythm a bit. Its not hard.]


|----------------22b24------------------------------------------------------|
|---------------------------------------------------------------------------|
|---------------------------------------------------------------------------|
|--9-9--9~----------------0-0-0~------5-5-5~-------5-5-5~-------------------|
|--9-9--9~----------------0-0-0~------5-5-5~-------5-5-5~-------------------|
|--9-9--------------------0-0---------5-5----------5-5----------------------|(x1)[x1]

[Dont do the bend the second time.]

Then theres this little diddly before the chorus.

|---------------------------|
|---------------------------|
|---------------------------|
|---------7-----------------|
|---5-4h5---5-4-0-----------|
|---------------------------|


Heres that super happy sounding chorus. The timings off fosho and a few 
notes are probably messed up, but you can get it.

|---17-17------------------------------------------------17-----------------|
|---------14-15~------15-15-17-19-17-19-17~--17-17-14-15----14-15~-----15-15|
|---------------------------------------------------------------------------|
|---------------------------------------------------------------------------|
|---------------------------------------------------------------------------|
|---------------------------------------------------------------------------|

|--17-17-17-----------------------------------------------------------------|
|-----------14-14-14-15--15-15-15-15-14------17-17-17-17--19-17-17--17-17---|
|---------------------------------------16----------------------------------|
|---------------------------------------------------------------------------|
|---------------------------------------------------------------------------|
|---------------------------------------------------------------------------|

|---------17------------------------------|
|---14-15----14-15~------15~--------------|
|-----------------------------------------|
|-----------------------------------------|
|-----------------------------------------|
|-----------------------------------------|

Then you basically repeat all of that, then theres this breakdown.
Im not 100% sure on the panic chord here.

|------------------10-10-10--------------------------10-10-----10-10----------|
|------------------14-14-14b15-----------------------14-14-----14-14----------|
|-----------------------------------------------------------------------------|
|--0000-0-0-0-0------------------0000-0-0-0-0--0-0---------0-0----------------|
|--0000-0-0-0-0------------------0000-0-0-0-0--0-0---------0-0----------------|
|--0000-0-0-0-0------------------0000-0-0-0-0--0-0---------0-0----------------|
   **** * * * *                  **** * * * *  * *         * *


|------------------10-10-10--------------------------10------10------------|
|------------------14-14-14b15--------------------------14------14---------|
|----------------------------------------------------------12------12------|
|--0000-0-0-0-0------------------0000-0-0-0-0--0-0-------------------------|
|--0000-0-0-0-0------------------0000-0-0-0-0--0-0-------------------------|
|--0000-0-0-0-0------------------0000-0-0-0-0--0-0-------------------------|
   **** * * * *                  **** * * * *  * *         

And third and fourth time:
|------------------------------------------------10-10------10-------------|
|------------------------------------------------14-14------14-------------|
|--------------------------------------------------------------------------|
|--0000---------0000----------0000-0-0-0-0--0-0---------0-0----------------|
|--0000---------0000----------0000-0-0-0-0--0-0---------0-0----------------|
|--0000---------0000----------0000-0-0-0-0--0-0---------0-0----------------|
   ****         ****          **** * * * *  * *         * *

Another synth break, then back to the same chords in the intro with a
different beat, then the chorus with a slightly different ending, and end the
song on:

|----|
|----|
|----|
|-0--|
|-0--|
|-0--|

And thats it!
If theres anything majorly wrong, leave a comment.

-Tanner
            

comments powered by Disqus
↑ Back to top | I Set My Friends On Fire Tabs for Things That Rhyme With Orange. Lyrics for acoustic guitar and electric guitar. Tablatures and chords are parodies/interpretations of the original songs. You may use it for private study, scholarship, research or language learning purposes only