>
 >
Reese's Pieces, I Don't Know Who John Cleese Is?

Reese's Pieces, I Don't Know Who John Cleese Is? Bass Tabs

I Set My Friends On Fire - Reese's Pieces, I Don't Know Who John Cleese Is? chords, tabs, tablatures, lyrics

Guitar lessons | Add/correct | Request | Top 50 tabs Artists:  A B C D E F G H I J K L M N O P Q R S T U V W X Y Z 0-9

Reese's Pieces, I Don't Know Who John Cleese Is? Bass Tabs – I Set My Friends On Fire

CD, Sheet music, Poster

Do you like Reese's Pieces, I Don't Know Who John Cleese Is?? Share with your friends now
Bass TabsTabs
KEYS INTRO: 0:00 - 0:21


VERSE 1: 0:22 - 0:55
F|-----------------------------------------------------------|(x2)
C|-----------------------------------------------------------|
G|-----------------------------------------------------------|
C|-0-0-0--000--0-0-0--000--5-5-5--555--8-8-8--888------------|

F|-----------------------------------------------------------|(x2) 
C|-----------------------------------------------------------|
G|-----------------------------------------------------------|
C|-8-8-8--888--8-8-8--888--10-10-10-101010--10-10-10--101010-|

F|-----------------------------------------------------------| 
C|-----------------------------------------------------------|
G|-----------------------------------------------------------|
C|-0-(x16)---12-(x16)----------------------------------------|


0:56 - 1:23
F|----------------------------------------------------------------------------|(x2)
C|-------------7~--------------7-5-3------------3~------3~~-------------------|
G|------------------00--00-0-0-------33--33-3-3-----2~------------------------|
C|--00--00-0-0----6-----------------------------------------------------------|


VERSE 2: 1:24 - 1:38
F|---------------------------------------------------------------------------|
C|---------------------------------------------------------------------------|
G|---------------------------------------------------------------------------|
C|-0-0-0--000--0-0-0--000--5-5-5--555--5-5-5--555--8-8-8--888--8-8-8--888----|

F|------------------------------------------|
C|------------------------------------------|
G|------------------------------------------|
C|-8888-10101010-12121212-10101010----------|

1:39 - 1:58
F|---------------|(x6)
C|---------------|
G|---------------|
C|--00-000-00----|

1:59 - 2:25
F|----------------------------------------------------|(x4)
C|----------------------------------------------------|
G|----------------------------------------------------|
C|--00-000-00---00-000-00--6-6------------------------|

BRIDGE:  2:26 - 2:30
F|----------------------------------------------------------------------------|
C|----------------------------------------------------------------------------|
G|----------------------------------------------------------------------------|
C|--3-3-3---5-5-5---8-8-8---10-10-10------------------------------------------|

VERSE 3:  2:31 - 2:45
F|----------------------------------------------------------------------------|
C|----------------------------------------------------------------------------|
G|----------------------------------------------------------------------------|
C|-1212-12-12-12--77-77-7--88-888-888-88-8------------------------------------|

F|----------------------------------------------------------------------------|
C|----------------------------------------------------------------------------|
G|----------------------------------------------------------------------------|
C|-1212-12-121212--7-7-7--777--88-888-888-88-8--------------------------------|

2:46 - 2:57
F|-------------------------------------------------(x2)|----------------------|
C|-----------------------------------------------------|----------------------|
G|-----------------------------------------------------|----------------------|
C|--12-(x8)---10-(x8)---8-(x16)------------------------|--0~~-----------------|


ELECTROBREAK


INTERLUDE 2: 3:10 - 3:39
F|----------------------------------------------------------------------------|(x2)
C|-----57-5-7-5-7-5-3-------5--5---55-3--------3---3---33---------------------|
G|-55-----------------33--3--3---3-------11--1---1---1----1-33--33-33-3h5-3h5-|
C|----------------------------------------------------------------------------|

HEAVY PART: 3:39 - 3:50
F|--------------------------|
C|--------------------------|
G|--------------------------|
C|--00000000-3333-5555------|

F|-------------------------------------|
C|-------------------------------------|
G|----12-12---12-12---12-12---12-12----|
C|--0---0---0---0---0---0---0---0------|

F|-----------------------------------|
C|-----------------------------------|
G|-----------------------------------|
C|--33--22--11--00----3-2-1-1-1-1-1--|

F|-------------------------------------|
C|-------------------------------------|
G|----12-12---12-12---12-12---12-12----|
C|--0---0---0---0---0---0---0---0------|

3:51 - 4:04
F|-------------------------------------------------------------|
C|-------------------------------------------------------------|
G|-------------------------------------------------------------|
C|-00---00----0000000-0-0-0-0--00---00----0000000-0-0-0-0------|

4:05 - 4:09
F|------------------------------------------|
C|------------------------------------------|
G|------------------------------------------|
C|-3333-4-43-3-3-4--3333-4-43-3-2-2---------|

4:10 - 4:35
F|--------------------------------------------------------------------|(x2)
C|----------------------------7-55-3----------------------------------|
G|-55----55----55--55----55-----------00----00----00--00----00--00----|
C|--------------------------------------------------------------------|

4:35 - 4:55
F|--------------------------------------|
C|-7~~--5~~-----------------------------|
G|--------------------------------------|
C|-------------0~~~~---0~~~~------------|

4:57 - 5:10
F|------------------------------------------------------------------|
C|------------------------------------------------------------------|
G|------------------------------------------------------------------|
C|-00---00---00---00-00-0-00---00---00---10-10-10-10-10-10-10-------|


5:11 - 5:40
F|-----------------------------------------------------------------------|(x2)
C|-----------------------------------------------------------------------|
G|-----------------------------------------------------------------------|
C|-0-0--0-0-----0-0--0-0-----8-8--8-8----10-10-10-10--12-12--12-12-------|

5:41 - 5:50
C|------------------------------------------------|(x2)
C|------------------------------------------------|
G|------------------------------------------------|
C|-0-0--0-0------0-0-0-0-0------------------------|

5:49 - 5:59
F|---------------------------------------------------------------|
C|---------------------------------------------------------------|
G|---------------------------------------------------------------|
C|-8-8--8-8------10-10-10-10-10-------12~--12~--10~--10~--0~~----|





Comments


Popular I Set My Friends On Fire tabs & chords
Untitled Acoustic Song Chords
Brief Interviews With Hideous Men 1 Tabs
But The NUNS Are Watching.. 1 Tabs
But The NUNS Are Watching.. 2 Tabs
Crank That Tabs
Four Years Foreplay Tabs
Ravenous Ravenous Rhinos Tabs
Reese's Pieces, I Don't Know Who John Cleese Is? Tabs
Wtfwjd Intro Tabs
Sex Ed Rocks Ukulele


Song lyrics



↑ Back to top | Tablatures and chords are parodies/interpretations of the original songs. You may use it for private study, scholarship, research or language learning purposes only
© 2014 AZChords.com Contact us | Privacy policy | DMCA | Add/correct tabs | Request tabs | Top 50 tabs