» » »

Ravenous Ravenous Rhinos Tabs (ver.1)

Artists:  A B C D E F G H I J K L M N O P Q R S T U V W X Y Z # 

Ravenous Ravenous Rhinos Tabs (ver.1)

I Set My Friends On Fire
Rating:
4/5 (3 votes)

Hard to play? Try these video lessons and learn fast.
                -----------------------------------------------------------------------------
              Ravenous Ravenous Rhinos - I Set My Friends On Fire
-----------------------------------------------------------------------------
Tuning: Drop C (DAFCGC)


This is the keyboard part on guitar.


D|--------------------------------------------------------------------------|
A|10-------10-----10-------10-----13-------10-----13-------10---------------|
F|----7-10------------7-10-----------10-11-----------10-11------------------|
C|--------------------------------------------------------------------------|
G|--------------------------------------------------------------------------|
C|--------------------------------------------------------------------------|
....will they sing it to others...

D|--------------------------------------------------------------------------|
A|10--10----8-----10--10----8------8-----10-----13-----10----8--------------|
F|-------10--------------10----------10-----10-----10-----10----------------|
C|--------------------------------------------------------------------------|
G|--------------------------------------------------------------------------|
C|--------------------------------------------------------------------------|


Play this twice before the breakdown.
            
Hard to play? Try these video lessons and learn fast. | Correct




comments powered by Disqus
↑ Back to top | Tablatures and chords are parodies/interpretations of the original songs. You may use it for private study, scholarship, research or language learning purposes only