» » »

Crank That Tabs (ver.1)

Artists:  A B C D E F G H I J K L M N O P Q R S T U V W X Y Z # 

Crank That Tabs (ver.1)

I Set My Friends On Fire
Rating:
3/5 (4 votes)

Hard to play? Try these video lessons and learn fast.
                Tuning: Dropped C (CGCFAD)

Key:
... = Palm Mute
[]  = Pinch Harmonic

Begin:

D||--10--------5--------6-----|-----10--------5-----------|
A||---------------------------|---------------------------|
F||---------------------------|---------------------------| x 12
C||---------------------------|---------------------------|
G||---------------------------|---------------------------|
C||---------------------------|---------------------------|

Then:

--10-----5--5--------6-----|--------10--5--5--5--10--10--|
---------------------------|-----------------------------|
---------------------------|-----------------------------|
---------------------------|-----------------------------|
---------------------------|-----------------------------|
---------------------------|-----------------------------|


--10-----5--5--------6-----|--------10--5--5--5--10--10--|
---------------------------|-----------------------------|
---------------------------|-----------------------------|
---------------------------|-----------------------------|
---------------------------|-----------------------------|
---------------------------|-----------------------------|

Back To:

   
--10--------5--------6-----|-----10--------5-----------|
---------------------------|---------------------------|
---------------------------|---------------------------|
---------------------------|---------------------------| 4 Times
---------------------------|---------------------------|
---------------------------|---------------------------|


Rest For 4 Measures. Then Back To:

 
--10--------5--------6-----|-----10--------5-----------|
---------------------------|---------------------------|
---------------------------|---------------------------|
---------------------------|---------------------------| 8 Times
---------------------------|---------------------------|
---------------------------|---------------------------|


Then:

 
--10-----5--5--------6-----|--------10--5--5--5--10--10--|
---------------------------|-----------------------------|
---------------------------|-----------------------------|
---------------------------|-----------------------------| 4 Times
---------------------------|-----------------------------|
---------------------------|-----------------------------|

Rest For 17 Measures. Then play:

(2/4 Time Rest)                         
-----------|--------------------------|-------------------|
-----------|--------------------------|-------------------|
-----------|--------------------------|-------------------|
-----------|--------------------------|-------------------|
-----------|--0--0--0-----0--0--0-----|-------------------|
-----------|--0--0--0-----0--0--0-----|-------------------|

--------------------------|-------------------|--------------------------|
--------------------------|-------------------|--------------------------|
--------------------------|-------------------|--------------------------|
--------------------------|-------------------|--------------------------|
--0--0--0-----0--0--0-----|-------------------|--0--0--0-----0--0--0-----|
--0--0--0-----0--0--0-----|-------------------|--0--0--0-----0--0--0-----|
     
     
-------------------|--------------------------|-----------------------|
-------------------|--------------------------|-----------------------|
-------------------|--------------------------|-----------[12]--------|
-------------------|--------------------------|-----------------------|
-------------------|--0--0--0-----0--0--0-----|-----------------------|
-------------------|--0--0--0-----0--0--0-----|-----------------------|

Then:


--------------------------|--------------------------|
--------------------------|--------------------------|
--------------------------|--------------------------|
--------------------------|--------------------------| 4 Times
--0--0--0--0--0--0--0--0--|--0--0--0--0--1--1--1--1--|
--0--0--0--0--0--0--0--0--|--0--0--0--0--1--1--1--1--|

End On:

------------||
------------||
------------||
--0---------||
--0---------||
--0---------||

This is 99% correct.I've played it over the song over 20 times, matches.
The only thing I couldn't quite figure out is which fret the Pinch is on.
12th is close enough, you figure it out if it's incorrect and bothers you that much.
Enjoy!
            
Hard to play? Try these video lessons and learn fast. | Correct




comments powered by Disqus
↑ Back to top | Tablatures and chords are parodies/interpretations of the original songs. You may use it for private study, scholarship, research or language learning purposes only