» » »

Beauty Is In The Eye Of The Beerholder Tabs (ver.1)

Artists:  A B C D E F G H I J K L M N O P Q R S T U V W X Y Z # 

Beauty Is In The Eye Of The Beerholder Tabs (ver.1)

I Set My Friends On Fire
Rating:
3/5 (2 votes)
Tabs too difficult? Try these video lessons and learn fast.
                
This is played in Drop C.
                                              x2 After piano this is played:
D||--------------------------------------------||---------------------------|
A||--------------------------------------------||---------------------------|
F||*------7-------7-------7-------------------*||--------10--10-------------|
C||*--------------------------6-5-6-5-6-5-6-5-*||---------x---x-------------|
G||---3-5---3-3-5---3-3-5---5------------------||--0--0---8---8-------------|
C||--------------------------------------------||--0--0---------------------|
                                                   .  .
-------------------------|-----------------------------|
-------------------------|-----------------------------|
--------9--9-------------|--------12--12/--------14----|
--------x--x-------------|---------x---x----------x----|
--0--0--7--7-------------|--2--2--10--10/--------12----|
--0--0-------------------|--2--2-----------------------|
  .  .                      .  .
  
---------------------------|
---------------------------|
--------10--10-------------|
---------x---x-------------|
--0--0---8---8-------------|
--0--0---------------------|
  .  .
-----------------------------------------------------------|
-----------------------------------------------------------|
--------------------------10----------10----10----------10-|
---------------------------x-----------x-----x-----------x-|
--0--0--0--0--0--0--0--0---8-0--0--0---8-0---8-0--0--0---8-|
--0--0--0--0--0--0--0--0-----0--0--0-----0-----0--0--0-----|
  .  .  .  .  .  .  .  .     .  .  .     .     .  .  .    

-----------------------------------------------------|
-----------------------------------------------------|
--------10----10-------10----------10----10-------10-|
---------x-----x--------x-----------x-----x--------x-|
--0--0---8-0---8-0--0---8-0--0--0---8-0---8-0--0---8-|
--0--0-----0-----0--0-----0--0--0-----0-----0--0-----|
  .  .     .     .  .     .  .  .     .     .  .

------------------------------------------------------|
------------------------------------------------------|
-----------9----9-------10-------10----10----------10-|
-----------x----x--------x--------x-----x-----------x-|
--0--0--0--7-0--7-0--0---8-0--0---8-0---8-0--0--0---8-|
--0--0--0----0----0--0-----0--0-----0-----0--0--0-----|
  .  .  .    .    .  .     .  .     .     .  .  .

-----------------------------------------------------|
-----------------------------------------------------|
--------10----10-------10----------10----10-------10-|
---------x-----x--------x-----------x-----x--------x-|
--0--0---8-0---8-0--0---8-0--0--0---8-0---8-0--0---8-|
--0--0-----0-----0--0-----0--0--0-----0-----0--0-----|
  .  .     .     .  .     .  .  .     .     .  .

---------------------------------------------------|
---------------------------------------------------|
-----------9----7-10-10-10-10-10-10-10-10-10-10-10-|
-----------x----x--8--8--8--8--8--8--8--8--8--8--8-|
--0--0--0--7-0--5--8--8--8--8--8--8--8--8--8--8--8-|
--0--0--0----0-----8--8--8--8--8--8--8--8--8--8--8-|
  .  .  .    .     Just because I ordered...

--------------------------------------------------|
--------------------------------------------------|
--10-10-10-10-10-10-10-10-10-10-10-10-10-10-10-10-|
---8--8--8--8--8--8--8--8--8--8--8--8--8--8--8--8-|
---8--8--8--8--8--8--8--8--8--8--8--8--8--8--8--8-|
---8--8--8--8--8--8--8--8--8--8--8--8--8--8--8--8-|
   Doesn't mean I can't look at the menu

---------------------------------------|-------------------------------------|
---------------------------------------|-------------------------------------|
--10-10-10-10-10-----------------------|----------------------------10-10-10-|
---8--8--8--8--8\3-3-3-3-3-3-3-3-3-3-3-|--3-3-3-3-3-3-3-3-3-3-3-3-3--x--x--x-
---8--8--8--8--8\3-3-3-3-3-3-3-3-3-3-3-|--3-3-3-3-3-3-3-3-3-3-3-3-3--8--8--8-|
---8--8--8--8--8\3-3-3-3-3-3-3-3-3-3-3-|--3-3-3-3-3-3-3-3-3-3-3-3-3----------|
                 Not that there's any other fish in the sea...

--------------------------------------------------|
--------------------------------------------------|
--10-12-12-12-12-10-10-10-10-10-10-10-10-10-10-10-|
---x--x--x--x--x--8--8--8--8--8--8--8--8--8--8--8-|
---8-10-10-10-10--8--8--8--8--8--8--8--8--8--8--8-|
------------------8--8--8--8--8--8--8--8--8--8--8-|
                  Just because I f**king ordered...

--------------------------------------------------|
--------------------------------------------------|
--10-10-10-10-10-10-10-10-10-10-10-10-10-10-10-10-|
---8--8--8--8--8--8--8--8--8--8--8--8--8--8--8--8-|
---8--8--8--8--8--8--8--8--8--8--8--8--8--8--8--8-|
---8--8--8--8--8--8--8--8--8--8--8--8--8--8--8--8-|
   Doesn't mean I can't look at the menu...

-------------------------------------------|
-------------------------------------------|
--10-10-10-10-10-----------------10-10-10-|
---8--8--8--8--8\3-3-3-3-3-3-3-3--x--x--x-|
---8--8--8--8--8\3-3-3-3-3-3-3-3--8--8--8-|
---8--8--8--8--8\3-3-3-3-3-3-3-3----------|
                 Not that theres.. 

--------------------------------------------------|
--------------------------------------------------|
--10-10-10-10-10-12-12-12-12-12-12-12-12----------|
---x--x--x--x--x--x--x--x--x--x--x--x--x----------|
---8--8--8--8--8-10-10-10-10-10-10-10-10----------|
--------------------------------------------------|
   Any other fish in the sea...

-----------------------------------------------------|
-----------------------------------------------------|
-----------------------10-----10-----10---10-12---12-|
------------------------x------x------x----x--x----x-|
5--3--0--5--3--2--3-----8-0-0--8-0-0--8-0--8-10-0-10-|
5--3--0--5--3--2--3-------0-0----0-0----0-------0----|
Pm------------------->    . .    . .    .       .
             
  
-----------------------------------------------|
-----------------------------------------------|
--------12---12-14---14-------14---14----------|
---------x----x--x----x--------x----x-12-------|
--0-0-0-10-0-10-12-0-12-0-0-0-12-0-12-12-------|
--0-0-0----0-------0----0-0-0----0----12-------|
  . . .    .       .    . . .    .

(here's the technoish part)

----------------------------------|----------------------------------|
------8-----8---8-----8-----8---8-|------8-----8---8-8-8\5-5/9-9-9-9-|
------6-----6---6-----6-----6---6-|------6-----6---6-6-6\3-3/7-7-7-7-|
------5-----5---5-----5-----5---5-|------5-----5---5-5-5\2-2\0-0-0-0-|
--0-0---0-0---0---0-0---0-0---0---|--0-0---0-0---0-------------------|
--0-0---0-0---0---0-0---0-0---0---|--0-0---0-0---0-------------------|
  . .   . .   .   . .   . .   .      . .   . .   .

----------------------------------|----------------------------------|
------8-----8---8-----8-----8---8-|------8-----8---8-8-8\5-5\3-3-3-3-|
------6-----6---6-----6-----6---6-|------6-----6---6-6-6\3-3\1-1-1-1-|
------5-----5---5-----5-----5---5-|------5-----5---5-5-5\2-2\0-0-0-0-|
--0-0---0-0---0---0-0---0-0---0---|--0-0---0-0---0-------------------|
--0-0---0-0---0---0-0---0-0---0---|--0-0---0-0---0-------------------|
  . .   . .   .   . .   . .   .      . .   . .   .

                                      3x  Technoish part         
|-------------------------------------||----|----|----|
|-------------------------------------||----|----|----|
|*-----------------------------------*||----|----|----|
|*-------------------4-1---3-0---1-4-*||----|----|----|
|---0-000-000-000-00-----1-----0------||----|----|----|
|---0-000-000-000-00------------------||----|----|----|
    . ... ... ... ..

                                                                         4x
|------------------------------------|------------------------------------||
|-------8-----11\--------9-----9-9-8-|------8-----11\---------------------||
|*------6------9\--------7-----7-7-6-|------6------9\--------------------*||
|*------5------0---------6-----6-6-5-|------5------0---------------------*||
|---0-0---0-0------0-0-0---0-0-------|--0-0---0-0--------5-5---3-3-2-2-0--||
|---0-0---0-0------0-0-0---0-0-------|--0-0---0-0--------5-5---3-3-2-2-0--||
    . .   . .      . . .   . .          . .   . .        

That's it, enjoy!!
            
Tabs too difficult? Try these video lessons and learn fast.


comments powered by Disqus
↑ Back to top | Tablatures and chords are parodies/interpretations of the original songs. You may use it for private study, scholarship, research or language learning purposes only