» » »

Wonderland Tabs (ver.1)

Artists:  A B C D E F G H I J K L M N O P Q R S T U V W X Y Z # 

Wonderland Tabs (ver.1)

I See Stars
Rating:
0/5 (0 votes)

Hard to play? Try these video lessons and learn fast.
                (Intro)
I know this probably isn't a 100% right but it is the closest I can get. I saw 
Hope you enjoy!


Guitar Intro [0:00 - 0:08]

[0:09 - 0:21]
e|-----------------------------------------------------------|
B|----------15------------17------------20-19-17-------------|
G|-----------------------------------------------19-16-------| [x3]
D|-14h15p14------14h15p14------14h15p14----------------------|
A|-----------------------------------------------------------|
D|-----------------------------------------------------------|

[0:22 - 0:31]
e|-----------------------------------------------------------|
B|--15-17--14-15--12-10--19v---------------------------------|
G|-----------------------------------------------------------|
D|-----------------------------------------------------------|
A|-----------------------------------------------------------|
D|-----------------------------------------------------------|

h=hammer-on
p=pull-off
v=vibrato
            
Hard to play? Try these video lessons and learn fast. | Correct




comments powered by Disqus
↑ Back to top | Tablatures and chords are parodies/interpretations of the original songs. You may use it for private study, scholarship, research or language learning purposes only