» » »

What This Means To Me Bass tabs (ver.1)

Artists:  A B C D E F G H I J K L M N O P Q R S T U V W X Y Z # 

What This Means To Me Bass tabs (ver.1)

I See Stars
Rating:
5/5 (1 vote)

Hard to play? Try these video lessons and learn fast.
                G|------------------0--------3-3-3-32---------------------|
D|-0-0-0-023-3-3-3-3--------------------------------------|
A|-------------------3-3-3-35-----------------------------|
E|--------------------------------------------------------|

G|------------------0--------3-----332--------------------|
D|-0-0-0-023-3-3-3-3--------------------------------------|
A|-------------------3-3-3-35-----------------------------|
E|--------------------------------------------------------|

yeah its only the intro, trying to work out the whole song so watch this space...

this'll sound better on a 5 string dropped-d but if you only have a 4 string like me 
is the best i can do.
            
Hard to play? Try these video lessons and learn fast. | Correct




comments powered by Disqus
↑ Back to top | Tablatures and chords are parodies/interpretations of the original songs. You may use it for private study, scholarship, research or language learning purposes only