» » »

This Isnt A Gameboy Tabs (ver.1)

Artists:  A B C D E F G H I J K L M N O P Q R S T U V W X Y Z # 

This Isnt A Gameboy Tabs (ver.1)

I See Stars
Rating:
0/5 (0 votes)

Hard to play? Try these video lessons and learn fast.
                
Drop B Tuning: B F# B E G# Db

Very easy, mainly just power chords and then a little but of palm muting.

(0:00-0:40)
|-------------------------|
|-------------------------|
|-------------------------|
|-/12-------8------7------|
|-/12-------8------7------|
|-/12-(x16)-8-(x8)-7-(x8)-| x4

(0:45-1:20)               last time
|---------------------------|-------|
|---------------------------|-------|
|---------------------------|-------|
|-/12-------5------8-----x4-|--12~~-|
|-/12-------5------8--------|--12~~-|
|-/12-(x16)-5-(x8)-8-(x8)---|--12~~-|

(1:23-2:11)
|-------------------------|
|-------------------------|
|-------------------------|
|-/12-------8------7------|
|-/12-------8------7------|
|-/12-(x16)-8-(x8)-7-(x8)-| x2

|---------------------------|
|---------------------------|
|---------------------------|
|-/12-------5------8--------|
|-/12-------5------8--------|
|-/12-(x16)-5-(x8)-8-(x8)---| x4

(2:11-2:45)Palm Muting Rhythm
|-----------------------|------------------------|
|-----------------------|------------------------|
|-----------------------|------------------------|
|-----------------------|------------------------|
|-0-0---0-0---0000-0000-|-0-0---0--0---0000-0000-|
|-0-0---0-0---0000-0000-|-0-0---0--0---0000-0000-| x4 (I think?)
  . .   . .   .... ....   . .   .  .   .... ....

It repeats the power chords and the palm muting once more the goes to the ending which 
is.... I think... Im not 100% sure...

|----12----12----12----12-----------------------------------|
|-15----15----15----15----(x2)-15----15----15----15---------|
|---------------------------------17----17----17----17-(x2)-| x2
|-----------------------------------------------------------|
|-----------------------------------------------------------|
|-----------------------------------------------------------|
            
Hard to play? Try these video lessons and learn fast. | Correct




comments powered by Disqus
↑ Back to top | Tablatures and chords are parodies/interpretations of the original songs. You may use it for private study, scholarship, research or language learning purposes only