» » »

The Common Hours Tabs (ver.1)

Artists:  A B C D E F G H I J K L M N O P Q R S T U V W X Y Z # 

The Common Hours Tabs (ver.1)

I See Stars
Rating:
5/5 (6 votes)

Tabs too difficult? Try these video lessons and learn fast.
                The Common Hours by I See Stars

Intro
e|-------------------------------|
B|-5/6--6--5/6--6----------------|
G|------7-------7----------------|
D|-------------------------------|x2
A|-----------------000-000-------|
D|-----------------000-000-------|
                   ... ...
As I recall...
e|-------------------------------|
B|-5/6--6--5/6--6----------------|
G|------7-------7----------------|
D|-------------------------------|x2 (Hold the 67 chord a little longer)
A|-----------------000-000-------|
D|-----------------000-000-------|
                   ... ...

Why would a good boy do something like this...
e|-------------------------------|
B|-------------------------------|
G|-7--7-12-1012--14--15--17\-----| (Figure out the strumming by yourself)
D|-------------------------------| (I wasn't positive about this part)
A|-5--5-10-8-10--12--13--15\-----|
D|-------------------------------|

This massacre...
e|-------------------------------|
B|-5/6--6--5/6--6----------------|
G|------7-------7----------------|
D|-------------------------------|x2 (Hold the 67 chord a little longer)
A|-----------------000-000-------|
D|-----------------000-000-------|
                   ... ...

All it took was for them to say...
e|-------------------------------|
B|-------------------------------|
G|-7--7-12-1012--14--15--17\-----| (Figure out the strumming by yourself)
D|-------------------------------| (I wasn't positive about this part)
A|-5--5-10-8-10--12--13--15\-----|
D|-------------------------------|


e|-------5--------------------------5-----------|
B|-6p5-----6p5---------------6p5------6p5-------|
G|-----5-------5/7--7-7-7-7-------5-------5/7~--|
D|----------------------------------------------|
A|------------------5-5-5-5---------------------|
D|----------------------------------------------|

So watch you mouth around the misses...
e|----------17-------------------|
B|-18p17-------18p17-------------|
G|-------17----------17/19-------|x2
D|-------------------------------|
A|-------------------------------|
D|-------------------------------|

I want to reign upon thee...
e|------------------------------------|
B|-18-17-0-(Pick really fast)---------|
G|-----------------------------17/19~-|
D|------------------------------------|
A|------------------------------------|
D|------------------------------------|

She screams my name...
 Breakdown. All palm muted chords. Figure out the Strumming by yourself.

Keyboard part

e|----------------|
B|----------------|
G|-7--7--7-15-14--|
D|----------------|x8
A|-5--5--5-13-12--|
E|----------------|

 
e|---------------------|
B|---------------------|
G|-15\--7-7-7-7-7------|
D|---------------------|
A|-13\--5-5-5-5-5------|
E|---------------------|

Keyboard part again

e|---------------------|
B|---------------------|
G|------7-7-7-7-7------|
D|---------------------|
A|------5-5-5-5-5------|
E|---------------------|


and she screams my name...
e|-13--12--10\--17--20\----------|
B|-------------------------------|
G|-------------------------------|
D|-------------------------------|
A|-------------------------------|
E|-------------------------------|


There's nothing left here...
e|-13-12-13-15-13-12-13-12-10-----|
B|----------------------------13\-|
G|--------------------------------|
D|--------------------------------|
A|--------------------------------|
E|--------------------------------|


The time to grow up is now...
e|-13-12-13-15-13-12-15-20-18-17/--|
B|---------------------------------|
G|---------------------------------|
D|---------------------------------|
A|---------------------------------|
E|---------------------------------|


e|-13-12-13-15-13-12-13-12-10-----|
B|----------------------------13\-|
G|--------------------------------|
D|--------------------------------|
A|--------------------------------|
E|--------------------------------|


You just step right into this picture...
e|---------------------------------------------|
B|-13-11-10------------------------------------|
G|----------10-12-10\9-10-9-10-9-10-9-10-9-10--|x4 (on last time through
D|---------------------------------------------| hold the 10 then slide back)
A|---------------------------------------------|
E|---------------------------------------------|


e|------------------|
B|------------------|
G|------------------|
D|------------------|(One the first 3 notes of this part, 
A|-0-0-0-0-000-000--| the two guitars trade off notes. 
E|-0-0-0-0-000-000--| So it goes, rhythm, lead, rhythm)
   . . . . ... ...

You'll never change...
e|------------------|
B|------------------|
G|------------------|
D|------------------|x4
A|-0-0-0-0-000-000--|
E|-0-0-0-0-000-000--|
   . . . . ... ...

The time has come for your...
e|----------------------|
B|----------------------|
G|----------------------|
D|----------------------|x2
A|-000-0-000-0-000-000--|
E|-111-1-111-1-111-111--|
   ... . ... . ... ...

...tion...
e|------------------|
B|------------------|
G|------------------|
D|------------------|x2
A|-0-0-0-0-000-000--|
E|-0-0-0-0-000-000--|
   . . . . ... ...



Lyrics

As I Recall
to the events caused prior to this murder
Why would a good boy do something like this (2x)
This massacre
no one could of seen this coming
All it took was for them to say
dont pack your bags cause your here to stay.

SO WATCH YOUR MOUTH AROUND THE MISSES
MY SECRETS HAVE BEEN TOLD
I WANT TO REIGN UPON THEE
AS MY CASE UNFOLDS

SHE SCREAMS MY NAME
AS SHE RUNS AWAY
MY HEARTS SO VICIOUS
YOU'D DO THE SAME

She screams my name
Nothing left to say
Theres nothing left here
theres nothing left home

The time to grow up is now 8X

you just step right into this picture
expecting things to change
its not happening


you'll never change
you'll stay the same
you'll never change
at least not for me

THE TIME HAS COME FOR YOUR
ELIMINATION (2x)
YOUR DEAD! 
            
Tabs too difficult? Try these video lessons and learn fast.


comments powered by Disqus
↑ Back to top | Tablatures and chords are parodies/interpretations of the original songs. You may use it for private study, scholarship, research or language learning purposes only