>
 >
The Big Bad Wolf

The Big Bad Wolf Guitar Tabs

I See Stars - The Big Bad Wolf chords, tabs, tablatures, lyrics

Guitar lessons | Add/correct | Request | Top 50 tabs Artists:  A B C D E F G H I J K L M N O P Q R S T U V W X Y Z 0-9

The Big Bad Wolf Guitar Tabs – I See Stars

CD, Sheet music, Poster

Do you like The Big Bad Wolf? Share with your friends now
Bass TabsTabs
My tab on I See Stars - "The Big Bad Wolf"

Watch here:
Comment, rate, and subscribe to it!

Tuning is Drop D

Intro:
e|--------------------------------------------|
B|--------------------------------------------|
G|-17p14-----------------------------14h17p14-|
D|-------15p0-17p0-15p14-------15h17----------|
A|-----------------------15h17----------------|
D|--------------------------------------------|

e|------------------------------|
B|------------------------------|
G|-17p14------------------------|
D|-------15p0-17p0-15p14--------|
A|-----------------------15h17--|
D|------------------------------|


Chorus:
e|--------------------------------------------|
B|--------------------------------------------|
G|-17p14-----------------------------14h17p14-|
D|-------15p0-17p0-15p14-------15h17----------|
A|-----------------------15h17----------------|
D|--------------------------------------------|

e|-----------------------------------------------|
B|-----------------------------------------------|
G|-17p14-----------------------------------------|
D|-------15p0-17p0-15p14-------15h17-------------|
A|-----------------------15h17-------17p15-17p15-|
D|-----------------------------------------------|

e|--------------------------------------------|
B|--------------------------------------------|
G|-17p14-----------------------------14h17p14-|
D|-------15p0-17p0-15p14-------15h17----------|
A|-----------------------15h17----------------|
D|--------------------------------------------|

e|------------------------------------|
B|-15-15--15-17-17--17-18-18-18-18-18-|
G|------------------------------------|
D|------------------------------------|
A|------------------------------------|
D|------------------------------------|


Verse 1:
e|---------------------------------------------------------|
B|---------------------------------------------------------|
G|-14-14-14-12-12-12--14-14-14-10-10-10--14-14-14-12-12-12-|
D|--x--x--x--x--x--x---x--x--x--x--x--x---x--x--x--x--x--x-|
A|-12-12-12-10-10-10--12-12-12--8--8--8--12-12-12-10-10-10-|
D|---------------------------------------------------------|

e|--------------------------|
B|--------------------------|
G|-14-14-14-10-10-10-9-9-9--|
D|--x--x--x--x--x--x-x-x-x--|
A|-12-12-12--8--8--8-7-7-7--|
D|--------------------------|

e|------------------------------------------------------------|
B|------------------------------------------------------------|
G|-14-14-14-14--12-12-12-12--14-14-14-14--10p9----------------|
D|--x--x--x--x---x--x--x--x---x--x--x--x------10p7----7h10p7~-|
A|-12-12-12-12--10-10-10-10--12-12-12-12----------8h10--------|
D|------------------------------------------------------------|

e|----------------------------------------------------------|
B|----------------------------------------------------------|
G|-17p0-17p0-15p0-15p0-14h15-14h15-14~--10p9----------------|
D|------------------------------------------10p7----7h10p7~-|
A|----------------------------------------------8h10--------|
D|----------------------------------------------------------|

e|-------------------------------------------------------------|
B|-------------------------------------------------------------|
G|-17p0-17p0-15p0-15p0-14h15-14h15-14~-17-17-17-17-14-14-14-14-|
D|--------------------------------------x--x--x--x--x--x--x--x-|
A|-------------------------------------15-15-15-15-12-12-12-12-|
D|-------------------------------------------------------------|


Chorus:
e|--------------------------------------------|
B|--------------------------------------------|
G|-17p14-----------------------------14h17p14-|
D|-------15p0-17p0-15p14-------15h17----------|
A|-----------------------15h17----------------|
D|--------------------------------------------|

e|-----------------------------------------------|
B|-----------------------------------------------|
G|-17p14-----------------------------------------|
D|-------15p0-17p0-15p14-------15h17-------------|
A|-----------------------15h17-------17p15-17p15-|
D|-----------------------------------------------|

e|--------------------------------------------|
B|--------------------------------------------|
G|-17p14-----------------------------14h17p14-|
D|-------15p0-17p0-15p14-------15h17----------|
A|-----------------------15h17----------------|
D|--------------------------------------------|

e|------------------------------------|
B|-15-15--15-17-17--17-18-18-18-18-18-|
G|------------------------------------|
D|------------------------------------|
A|------------------------------------|
D|------------------------------------|

(Figure out strumming here..)
e|----------------------------------|
B|----------------------------------|
G|-14--15--17--15---14--12--17--15--|
D|--x---x---x---x----x---x---x---x--|
A|-12--13--15--13---12--10--15--13--|
D|----------------------------------|


Breakdown 1:
e|-------------|    e|---17--15--15--15--15-|
B|-------------|    B|-13--13--13--13--13---|
G|-------------| 2X G|----------------------|
D|-0-0-0-00000-|    D|----------------------|
A|-0-0-0-00000-|    A|----------------------|
D|-0-0-0-00000-|    D|----------------------|
   . . . .....

e|----------------------------------17--15--15--15--15-|
B|--------------------------------13--13--13--13--13---|
G|-3p0-2p0---------------------------------------------|
D|---------3p0-0-0-0-00000-3-0-------------------------|
A|-------------0-0-0-00000-----3-----------------------|
D|-------------0-0-0-00000-----------------------------|
               . . . .....

e|-----------------------------------|
B|-----------------------------------|
G|-3p0-2p0---------------------------|
D|---------3p0-0-0-0-00000-3-0----0~-|
A|-------------0-0-0-00000-----3--0~-|
D|-------------0-0-0-00000--------0~-|
               . . . .....

e|----------------------------------|
B|----------------------------------|
G|-14--15--17--15---14--12--17--15--|
D|--x---x---x---x----x---x---x---x--|
A|-12--13--15--13---12--10--15--13--|
D|----------------------------------|

(Pause, keys/drums)

Verse 2:
e|---------------------------------------------------------|
B|---------------------------------------------------------|
G|-14-14-14-12-12-12--14-14-14-10-10-10--14-14-14-12-12-12-|
D|--x--x--x--x--x--x---x--x--x--x--x--x---x--x--x--x--x--x-|
A|-12-12-12-10-10-10--12-12-12--8--8--8--12-12-12-10-10-10-|
D|---------------------------------------------------------|

e|--------------------------|
B|--------------------------|
G|-14-14-14-10-10-10-9-9-9--|
D|--x--x--x--x--x--x-x-x-x--|
A|-12-12-12--8--8--8-7-7-7--|
D|--------------------------|

e|------------------------------------------------------------|
B|------------------------------------------------------------|
G|-14-14-14-14--12-12-12-12--14-14-14-14--10p9----------------|
D|--x--x--x--x---x--x--x--x---x--x--x--x------10p7----7h10p7~-|
A|-12-12-12-12--10-10-10-10--12-12-12-12----------8h10--------|
D|------------------------------------------------------------|

e|----------------------------------------------------------|
B|----------------------------------------------------------|
G|-17p0-17p0-15p0-15p0-14h15-14h15-14~--10p9----------------|
D|------------------------------------------10p7----7h10p7~-|
A|----------------------------------------------8h10--------|
D|----------------------------------------------------------|

e|-------------------------------------------------------------|
B|-------------------------------------------------------------|
G|-17p0-17p0-15p0-15p0-14h15-14h15-14~-17-17-17-17-14-14-14-14-|
D|--------------------------------------x--x--x--x--x--x--x--x-|
A|-------------------------------------15-15-15-15-12-12-12-12-|
D|-------------------------------------------------------------|


(Figure out strumming here..)
e|----------------------------------|
B|----------------------------------|
G|-14--15--17--15---14--15--17--15--|
D|--x---x---x---x----x---x---x---x--|
A|-12--13--15--13---12--13--15--13--|
D|----------------------------------|

e|------------------------------------------------------------|
B|------------------------------------------------------------|
G|-14~--14~--15~--17~--15~--14~--14~--14~--15~--17~--15~--14~-|
D|------------------------------------------------------------|
A|------------------------------------------------------------|
D|------------------------------------------------------------|


Chorus:
e|--------------------------------------------|
B|--------------------------------------------|
G|-17p14-----------------------------14h17p14-|
D|-------15p0-17p0-15p14-------15h17----------|
A|-----------------------15h17----------------|
D|--------------------------------------------|

e|-----------------------------------------------|
B|-----------------------------------------------|
G|-17p14-----------------------------------------|
D|-------15p0-17p0-15p14-------15h17-------------|
A|-----------------------15h17-------17p15-17p15-|
D|-----------------------------------------------|

e|--------------------------------------------|
B|--------------------------------------------|
G|-17p14-----------------------------14h17p14-|
D|-------15p0-17p0-15p14-------15h17----------|
A|-----------------------15h17----------------|
D|--------------------------------------------|

e|------------------------------------|
B|-15-15--15-17-17--17-18-18-18-18-18-|
G|------------------------------------|
D|------------------------------------|
A|------------------------------------|
D|------------------------------------|

(Figure out strumming here..)
e|-----------------------------------|
B|-----------------------------------|
G|-14--15--17--15---14--12--17--19\--|
D|--x---x---x---x----x---x---x---x---|
A|-12--13--15--13---12--10--15--17\--|
D|-----------------------------------|


Outro:
e|-----------------|
B|-------5------4--|
G|-------8------7--|
D|-00-00---00-00---|  6X
A|-00-00---00-00---|
D|-00-00---00-00---|
   .. ..   .. ..

e|-------------------------------| ------------|
B|-------5------4--------5-------|             |
G|-------8------7--------8-------|             |
D|-00-00---00-00---00-00---00-00-|             |
A|-00-00---00-00---00-00---00-00-|             | 
D|-00-00---00-00---00-00---00-00-|             |---- 2X
   .. ..   .. ..   .. ..   .. ..               |
                                               |
e|-------------------------------------|       |
B|-------5------4--------5--5-5-5-5-5--|       |
G|-------8------7--------8--8-8-8-8-8--|       |
D|-00-00---00-00---00-00---------------|       |
A|-00-00---00-00---00-00---------------|       |
D|-00-00---00-00---00-00---------------| ------┘
   .. ..   .. ..   .. ..

Enjoy!





Comments


Popular I See Stars tabs & chords
Your Love Chords
3d 1 Tabs
Digital Renegade Tabs
Glow Tabs
Gnars Attacks Tabs
Mystery Wall Tabs
Project Wakeup 1 Tabs
Save The Cheerleader Tabs
Underneath Every Smile Tabs
Ibelieve Ukulele


Song lyrics



↑ Back to top | Tablatures and chords are parodies/interpretations of the original songs. You may use it for private study, scholarship, research or language learning purposes only
© 2014 AZChords.com Contact us | Privacy policy | DMCA | Add/correct tabs | Request tabs | Top 50 tabs