» » »

Still Not Quite Enough Tabs (ver.1)

Artists:  A B C D E F G H I J K L M N O P Q R S T U V W X Y Z # 

Still Not Quite Enough Tabs (ver.1)

I See Stars
Rating:
0/5 (0 votes)

Hard to play? Try these video lessons and learn fast.
                I See Stars
The End of the World Party

Intro I
e) ------------------------------------------------------------------------|
B) -------------------------------------------------------9----9----9----9-|
G) ---------------------------------------------------------12---12---12---|
D) 6-6--8-8--10-10--10-10-10-10-10-10-10-6-6--8-8--10-10-------------------|
A) 6-6--8-8--10-10--10-10-10-10-10-10-10-6-6--8-8--10-10-------------------|
D) 6-6--8-8--10-10--10-10-10-10-10-10-10-6-6--8-8--10-10-------------------|

Intro II
e) -----------------h---18---------------h-------------------------|
B) ----18-16------15-16-----16---------16-18--16--------18--16-----|
G) -15------------------------------17------------15------------15-|
D) ----------------------------------------------------------------|
A) ----------------------------------------------------------------|
D) ----------------------------------------------------------------|

Pre-Verse
e) ----------------------------|
B) ----------------------------|
G) 15--------------------------| Hold out note
D) ----------------------------|
A) ----------------------------|
D) ----------------------------|

Verse
e) --------------------------------|
B) --------------------------------| Repeat 4x
G) 8-8-8-8-8-8-8-8-8-8-8-8-8-8-8-8-| First 2x - Palm muted
D) --------------------------------| Second 2x - Not palm muted
A) --------------------------------|
D) --------------------------------|

e) ----------------------------------------------------------------|
B) 8-8-8-8-8-8-8-8-8-8-8-8-8-8-8-8-6-6-6-6-6-6-6-6-9-9-9-9-9-9-9-9-|
G) ----------------------------------------------------------------|
D) ----------------------------------------------------------------|
A) ----------------------------------------------------------------|
D) ----------------------------------------------------------------|

e) -----11--10-------11--10--11-|
B) 11------p----11------p---h---|
G) -----------------------------|
D) -----------------------------|
A) -----------------------------|
D) -----------------------------|

Pre-Chorus
e) 11--------------------------|
B) ----------------------------|
G) ----------------------------| Hold out note
D) ----------------------------|
A) ----------------------------|
D) ----------------------------|

Chorus
e) ----------------------------------------------------------------|
B) ----------------------------------------------------------------|
G) ----------------------------------------------------------------| 
D) 6-6-6-6-6-6-6-6-6-6-6-6-6-6-6-6-1-1-1-1-1-1-1-1-8-8-8-8-8-8-8-8-| 2x
A) 6-6-6-6-6-6-6-6-6-6-6-6-6-6-6-6-1-1-1-1-1-1-1-1-8-8-8-8-8-8-8-8-|
D) 6-6-6-6-6-6-6-6-6-6-6-6-6-6-6-6-1-1-1-1-1-1-1-1-8-8-8-8-8-8-8-8-|

e) 16----16----16----16----15----15----15----15----|
B) ---16----16----16----16----16----16----16----16-|
G) ------------------------------------------------|
D) ------------------------------------------------|
A) ------------------------------------------------|
D) ------------------------------------------------|

e) 13----13----13----13----11----11----11----11----|
B) ---16----16----16----16----16----16----16----16-|
G) ------------------------------------------------|
D) ------------------------------------------------|
A) ------------------------------------------------|
D) ------------------------------------------------|

e) 16----16----16----16----15----15----15----15----|
B) ---16----16----16----16----16----16----16----16-|
G) ------------------------------------------------|
D) ------------------------------------------------|
A) ------------------------------------------------|
D) ------------------------------------------------|

e) ------------------------------18-------18-------|
B) 15-16-18-15-16-18-15-16-15-16----15-16----15-16-|
G) --h--------h--------h-----h--------h--------h---|
D) ------------------------------------------------|
A) ------------------------------------------------|
D) ------------------------------------------------|

Post-Chorus
e) ----------------------------|
B) 16--------------------------|
G) ----------------------------| Hold out note
D) ----------------------------|
A) ----------------------------|
D) ----------------------------|

Intro II

Verse

Intro II

Pre-Verse

Chorus

Post-Chorus - Held out through bridge

Build up (At the end of bridge, right before solo)
e) -------------------------------------|
B) -------------------------------------|
G) -------------------------------------|
D) 8-8-8-8-8-8-8-8-8--------------------| Palm muted
A) 8-8-8-8-8-8-8-8-8--------------------|
D) 8-8-8-8-8-8-8-8-8--------------------|

Solo
e) ------------------------------------------------11----s15--11--10----|
B) 11v--------8v--------6v--------3b--------8-9-11-----11---------------|
G) ------------------------------------------h-h------------------------|
D) ---------------------------------------------------------------------|
A) ---------------------------------------------------------------------|
D) ---------------------------------------------------------------------|

(fast part)
e) ------------------------------------------------------------|
B) ---------------------------------------------------------15-|
G) ---------------------------------15-------15-17----15-17----|
D) ------15-17----15-17-18-15-17-18----17-18-------18----------|
A) 17-18-------18----------------------------------------------|
D) ------------------------------------------------------------|

e) ----------------16--18---s20--18--16-15--16-15-----------|
B) 16b---16r---15----------------------p------p---16v-------|
G) ---------------------------------------------------------|
D) ---------------------------------------------------------|
A) ---------------------------------------------------------|
D) ---------------------------------------------------------|

e) --------15------15b----------------------------------------------------|
B) 16--18------16-------18---16---15----11-11-13-13-15-15-15-15-16v-------|
G) -----------------------------------------------------------------------|
D) -----------------------------------------------------------------------|
A) -----------------------------------------------------------------------|
D) -----------------------------------------------------------------------|

Final Chorus / Outro
e) ----------------------------------------------------------------|
B) ----------------------------------------------------------------|
G) ----------------------------------------------------------------|
D) 6-6-6-6-6-6-6-6-1-1-1-1-1-1-1-1-8-8-8-8-8-8-8-8-8-8-8-8-8-8-8-8-| 2x
A) 6-6-6-6-6-6-6-6-1-1-1-1-1-1-1-1-8-8-8-8-8-8-8-8-8-8-8-8-8-8-8-8-|
D) 6-6-6-6-6-6-6-6-1-1-1-1-1-1-1-1-8-8-8-8-8-8-8-8-8-8-8-8-8-8-8-8-|

End On:
e) -------------------------------------|
B) -------------------------------------|
G) -------------------------------------|
D) 6------------------------------------|
A) 6------------------------------------|
D) 6------------------------------------|


KEY:
p - pull off
h - hammer on
v - vibrato
b - bend
s - slide
r - release bend

Please rate and comment!
            
Hard to play? Try these video lessons and learn fast. | Correct




comments powered by Disqus
↑ Back to top | Tablatures and chords are parodies/interpretations of the original songs. You may use it for private study, scholarship, research or language learning purposes only