>
 >
Over It

Over It Guitar Tabs

I See Stars - Over It chords, tabs, tablatures, lyrics

Guitar lessons | Add/correct | Request | Top 50 tabs Artists:  A B C D E F G H I J K L M N O P Q R S T U V W X Y Z 0-9

Over It Guitar Tabs – I See Stars

CD, Sheet music, Poster

Do you like Over It? Share with your friends now
Tabs
Drop D Tuning

LEAD GUITAR

Intro (Guitars don't come in until about 0:20)
e) ----------------------------------|
B) ----------------------------------|
G) --7-------9---6---7---------------|
D) -------7--------------------------| 2x
A) ----------------------------------|
D) ----------------------------------|

Verse I
e) ----------------------------------------------------------------|
B) ----------------------------------------------------------------|
G) 7-7-7-7-7-7-7-7-7-7-7-7-7-7-7-7-7-7-7-7-7-7-7-7-6-6-6-7-7-7-9-9-|
D) ----------------------------------------------------------------| 2x
A) ----------------------------------------------------------------|
D) ----------------------------------------------------------------|

e) ---------------10-10-10-10-10-10-10-10-10-10-|
B) 7-7-7-10-10-10-------------------------------|
G) ---------------------------------------------|
D) ---------------------------------------------| 
A) ---------------------------------------------|
D) ---------------------------------------------|

e) ---------------12-12-12-10-10-10-10-10-10-10-|
B) 7-7-7-10-10-10-------------------------------|
G) ---------------------------------------------|
D) ---------------------------------------------| 
A) ---------------------------------------------|
D) ---------------------------------------------|

e) 12-12-12-12-12-12-12-12-12-12-12-12-12-12-12-12-|
B) ------------------------------------------------|
G) ------------------------------------------------|
D) ------------------------------------------------| 
A) ------------------------------------------------|
D) ------------------------------------------------|

e) 14-14-14-14-14-14-14-14-10----------------------|
B) ------------------------------------------------|
G) ------------------------------------------------|
D) ------------------------------------------------| 
A) ------------------------------------------------|
D) ------------------------------------------------|

Pre-Chorus 
e) ---------------------------------|
B) ---------------------------------|
G) ---------------------------------|
D) 0----------------5---------------| 
A) 0----------------5---------------|
D) 0----------------5---------------|

Chorus
e) ----------------------------------|
B) ----------------------------------|
G) --7-------9---6---7---------------|
D) -------7--------------------------| 2x
A) ----------------------------------|
D) ----------------------------------|

e) --10------12--9---10----10-10-10-10-10-10-10-9-9-9-9-9-9-9-|
B) -------10--------------------------------------------------|
G) -----------------------------------------------------------|
D) -----------------------------------------------------------|
A) -----------------------------------------------------------|
D) -----------------------------------------------------------|

e) --10------14--9---10----10-10-10-10-10-14--14-14-14-14-14-12-10--|
B) -------10--------------------------------------------------------|
G) -----------------------------------------------------------------|
D) -----------------------------------------------------------------|
A) -----------------------------------------------------------------|
D) -----------------------------------------------------------------|


e) --10------12--9---10----10-10-10-10-10-10-10-9-9-9-9-9-9-9-|
B) -------10--------------------------------------------------|
G) -----------------------------------------------------------|
D) -----------------------------------------------------------|
A) -----------------------------------------------------------|
D) -----------------------------------------------------------|

e) --10------14--12---10-10-------------|
B) -------10----------------------------|
G) -------------------------------------|
D) -------------------------------------|
A) -------------------------------------|
D) -------------------------------------|

Verse II
e) -----------------------------------------------------------------|
B) -----------------------------------------------------------------|
G) 6-7-7-7-7-7-7-7-7-7-7-7-7-7-7-7-6-7-7-7-7-7-7-7---------9-9-9-9--|
D) ------------------------------------------------7-7-7-7----------| 3x
A) -----------------------------------------------------------------|
D) -----------------------------------------------------------------|

e) -----------------------------------------------------------------|
B) -----------------------------------------------------------------|
G) 6-7-7-7-7-7-7-7-7-7-7-7-7-7-7-7-6-7-7-7-7-7-7-7-7----------------|
D) -----------------------------------------------------------------|
A) -----------------------------------------------------------------|
D) -----------------------------------------------------------------|

Pre-Chorus II
e) ----------------------------------------------------------|
B) ----------------------------------------------------------|
G) 4--4-4--4-4-4--6-6-6--6-6--7--7-7-7-7-7-7-7-7-7-7-7-7-7-7-|
D) ----------------------------------------------------------|
A) 2--2-2--2-2-2--4-4-4--4-4--5--5-5-5-5-5-5-5-5-5-5-5-5-5-5-|
D) ----------------------------------------------------------|

e) ----------------------------------------------------------|
B) ----------------------------------------------------------|
G) 4--4-4--4-4-4--6-6-6--6-6--7--7-7-7-7-7-7-7-7-------------|
D) ----------------------------------------------------------|
A) 2--2-2--2-2-2--4-4-4--4-4--5--5-5-5-5-5-5-5-5-------------|
D) ----------------------------------------------------------|

Chorus II
e) ----------------------------------|
B) ----------------------------------|
G) --7-------9---6---7---------------|
D) -------7--------------------------| 4x
A) ----------------------------------|
D) ----------------------------------|

Bridge
e) --------------------------------------------|
B) --------------------------------------------|
G) --------------------------------------------|
D) --------------------------------------------|
A) 0-0-----0-0-----0-0-----0-0-----0-0---0-0---|
D) 0-0-----0-0-----0-0-----0-0-----0-0---0-0---|

e) --------------------------------------------|
B) --------------------------------------------|
G) --------------------------------------------|
D) --------------------------------------------|
A) 0-0-----0-0-----0-0-----0-0-----------------|
D) 0-0-----0-0-----0-0-----0-0-----------------|

HOLD OUT NOTES
e) --------------------------------------------|
B) --------------------------------------------|
G) --------------------------------------------|
D) --------------------------------------------|
A) 0-0-----0-0-----0-0-----0-0-----0-0---------|
D) 0-0-----0-0-----0-0-----0-0-----0-0---------|

e) --------------------------------------------|
B) --------------------------------------------|
G) --------------------------------------------|
D) --------------------------------------------|
A) --------0-0-----0-0-----0-0-----0-0---------|
D) --------0-0-----0-0-----0-0-----0-0---------|

Pre-Chorus III - Same riff as Verse II

Chorus III - Same riff as Chorus I

Outro
e) ---------------------------------------------------|
B) ---------------------------------------------------|
G) ---------------------------------------------------|
D) ---------------------------------------------------|
A) 000---000-------000---000--000---000--000-000--000-|
D) 000---000-------000---000--000---000--000-000--000-|

_________________________________________________________________________

RHYTHM GUITAR

Intro (Guitars don't come in until about 0:20)
e) ---------------------------------------------------------------|
B) ---------------------------------------------------------------|
G) ---------------------------------------------------------------|
D) ---------------------------------------------------------------|
A) 0-0-0-0-0-0-0-0-0-0-0-0-0-0-0-0-5-5-5-5-5-5-5-5--5-5-5-5-5-5-5-|
D) 0-0-0-0-0-0-0-0-0-0-0-0-0-0-0-0-5-5-5-5-5-5-5-5--5-5-5-5-5-5-5-|

e) ---------------------------------------------------------------|
B) ---------------------------------------------------------------|
G) ---------------------------------------------------------------|
D) ---------------------------------------------------------------|
A) 0-0-0-0-0-0-0-0-0-0-0-0-0-0-0-0-5-5-5-5-5-5-5-5-5--------------|
D) 0-0-0-0-0-0-0-0-0-0-0-0-0-0-0-0-5-5-5-5-5-5-5-5-5--------------|

Verse I - PALM MUTE
e) ----------------------------------------------------------------|
B) ----------------------------------------------------------------|
G) ----------------------------------------------------------------|
D) ----------------------------------------------------------------|
A) 0-0-0-0-0-0-0-0-0-0-0-0-0-0-0-0-0-0-0-0-0-0-0-0-0-0-0-0-0-0-0-0-|
D) 0-0-0-0-0-0-0-0-0-0-0-0-0-0-0-0-0-0-0-0-0-0-0-0-0-0-0-0-0-0-0-0-|

e) ----------------------------------------------------------------|
B) ----------------------------------------------------------------|
G) ----------------------------------------------------------------| 
D) ----------------------------------------------------------------|
A) 5-5-5-5-5-5-5-5-5-5-5-5-5-5-5-5-5-5-5-5-5-5-5-5-5-5-5-5-5-5-5-5-|
D) 5-5-5-5-5-5-5-5-5-5-5-5-5-5-5-5-5-5-5-5-5-5-5-5-5-5-5-5-5-5-5-5-|

e) ----------------------------------------------------------------|
B) ----------------------------------------------------------------|
G) ----------------------------------------------------------------|
D) ----------------------------------------------------------------|
A) 0-0-0-0-0-0-0-0-0-0-0-0-0-0-0-0-0-0-0-0-0-0-0-0-0-0-0-0-0-0-0-0-|
D) 0-0-0-0-0-0-0-0-0-0-0-0-0-0-0-0-0-0-0-0-0-0-0-0-0-0-0-0-0-0-0-0-|

e) ---------------------------------------------------------|
B) ---------------------------------------------------------|
G) -------------------------------------------------7-9--11-| 
D) ---------------------------------------------------------|
A) 5-5-5-5-5-5-5-5-5-5-5-5-5-5-5-5-5-5-5-5-5-5-5-5--5-7--9--|
D) 5-5-5-5-5-5-5-5-5-5-5-5-5-5-5-5-5-5-5-5-5-5-5-5----------|

Pre-Chorus - HOLD OUT
e) ----------------------------------------------------------------|
B) ----------------------------------------------------------------|
G) ----------------------------------------------------------------|
D) ----------------------------------------------------------------| 2x
A) 0---------------------------------------------------------------|
D) 0---------------------------------------------------------------|

Chorus
e) ---------------------------------------------------------------|
B) ---------------------------------------------------------------|
G) ---------------------------------------------------------------|
D) ---------------------------------------------------------------|
A) 0-0-0-0-0-0-0-0-0-0-0-0-0-0-0-0-5-5-5-5-5-5-5-5--5-5-5-5-5-5-5-|
D) 0-0-0-0-0-0-0-0-0-0-0-0-0-0-0-0-5-5-5-5-5-5-5-5--5-5-5-5-5-5-5-|

e) --------------------------------------------------------|
B) --------------------------------------------------------|
G) --------------------------------------------------------|
D) --------------------------------------------------------|
A) 0-0-0-0-0-0-0-0-0-0-0-0-0-0-0-0-555--555----555--555----|
D) 0-0-0-0-0-0-0-0-0-0-0-0-0-0-0-0-555--555----555--555----|

e) ------------------------------------------|
B) ------------------------------------------|
G) ------------------------------------------|
D) ------------------------------------------|
A) 000---000-------000---000--000---000--000-|
D) 000---000-------000---000--000---000--000-|

e) ------------------------------------------|
B) ------------------------------------------|
G) ------------------------------------------| Repeat last 2 parts 2x
D) ------------------------------------------| 
A) 555---555-------555---555--555---555--555-| Second Time: HOLD OUT NOTES
D) 555---555-------555---555--555---555--555-|

Verse II - Same as Verse I

Pre-Chorus II
e) ----------------------------------------------------------|
B) ----------------------------------------------------------|
G) 4--4-4--4-4-4--6-6-6--6-6--7--7-7-7-7-7-7-7-7-7-7-7-7-7-7-|
D) ----------------------------------------------------------|
A) 2--2-2--2-2-2--4-4-4--4-4--5--5-5-5-5-5-5-5-5-5-5-5-5-5-5-|
D) ----------------------------------------------------------|

e) ----------------------------------------------------------|
B) ----------------------------------------------------------|
G) 4--4-4--4-4-4--6-6-6--6-6--7--7-7-7-7-7-7-7-7-------------|
D) ----------------------------------------------------------|
A) 2--2-2--2-2-2--4-4-4--4-4--5--5-5-5-5-5-5-5-5-------------|
D) ----------------------------------------------------------|

Chorus II
e) ---------------------------------------------------------------|
B) ---------------------------------------------------------------|
G) ---------------------------------------------------------------|
D) ---------------------------------------------------------------|
A) 0-0-0-0-0-0-0-0-0-0-0-0-0-0-0-0-5-5-5-5-5-5-5-5--5-5-5-5-5-5-5-|
D) 0-0-0-0-0-0-0-0-0-0-0-0-0-0-0-0-5-5-5-5-5-5-5-5--5-5-5-5-5-5-5-|

e) --------------------------------------------------------|
B) --------------------------------------------------------|
G) --------------------------------------------------------|
D) --------------------------------------------------------|
A) 0-0-0-0-0-0-0-0-0-0-0-0-0-0-0-0-555--555----555--555----|
D) 0-0-0-0-0-0-0-0-0-0-0-0-0-0-0-0-555--555----555--555----|

e) ---------------------------------------------------------------|
B) ---------------------------------------------------------------|
G) ---------------------------------------------------------------|
D) ---------------------------------------------------------------|
A) 0-0-0-0-0-0-0-0-0-0-0-0-0-0-0-0-5-5-5-5-5-5-5-5--5-5-5-5-5-5-5-|
D) 0-0-0-0-0-0-0-0-0-0-0-0-0-0-0-0-5-5-5-5-5-5-5-5--5-5-5-5-5-5-5-|

e) ----------------------------------------------------------------|
B) ----------------------------------------------------------------|
G) ----------------------------------------------------------------|
D) ----------------------------------------------------------------|
A) 0-0-0-0-0-0-0-0-0-0-0-0-0-0-0-0-5-5-5-5-5-5-5-5-5-5-5-5-5-5-5-5-|
D) 0-0-0-0-0-0-0-0-0-0-0-0-0-0-0-0-5-5-5-5-5-5-5-5-5-5-5-5-5-5-5-5-|

Bridge
e) --------------------------------------------|
B) --------------------------------------------|
G) --------------------------------------------|
D) --------------------------------------------|
A) 0-0-----0-0-----0-0-----0-0-----0-0---0-0---|
D) 0-0-----0-0-----0-0-----0-0-----0-0---0-0---|

e) --------------------------------------------|
B) --------------------------------------------|
G) --------------------------------------------|
D) --------------------------------------------|
A) 0-0-----0-0-----0-0-----0-0-----------------|
D) 0-0-----0-0-----0-0-----0-0-----------------|

HOLD OUT NOTES
e) --------------------------------------------|
B) --------------------------------------------|
G) --------------------------------------------|
D) --------------------------------------------|
A) 0-0-----0-0-----0-0-----0-0-----0-0---------|
D) 0-0-----0-0-----0-0-----0-0-----0-0---------|

e) --------------------------------------------|
B) --------------------------------------------|
G) --------------------------------------------|
D) --------------------------------------------|
A) --------0-0-----0-0-----0-0-----0-0---------|
D) --------0-0-----0-0-----0-0-----0-0---------|

Pre-Chorus III
e) ----------------------------------------------------------------|
B) ----------------------------------------------------------------|
G) ----------------------------------------------------------------|
D) ----------------------------------------------------------------|
A) 0-0-0-0-0-0-0-0-0-0-0-0-0-0-0-0-0-0-0-0-0-0-0-0-0-0-0-0-0-0-0-0-|
D) 0-0-0-0-0-0-0-0-0-0-0-0-0-0-0-0-0-0-0-0-0-0-0-0-0-0-0-0-0-0-0-0-|

e) ----------------------------------------------------------------|
B) ----------------------------------------------------------------|
G) ----------------------------------------------------------------| 
D) ----------------------------------------------------------------| 2x
A) 5-5-5-5-5-5-5-5-5-5-5-5-5-5-5-5-5-5-5-5-5-5-5-5-5-5-5-5-5-5-5-5-|
D) 5-5-5-5-5-5-5-5-5-5-5-5-5-5-5-5-5-5-5-5-5-5-5-5-5-5-5-5-5-5-5-5-|

Chorus III
e) ---------------------------------------------------------------|
B) ---------------------------------------------------------------|
G) ---------------------------------------------------------------|
D) ---------------------------------------------------------------|
A) --------------------------------5-5-5-5-5-5-5-5--5-5-5-5-5-5-5-|
D) --------------------------------5-5-5-5-5-5-5-5--5-5-5-5-5-5-5-|

e) --------------------------------------------------------|
B) --------------------------------------------------------|
G) --------------------------------------------------------|
D) --------------------------------------------------------|
A) 0-0-0-0-0-0-0-0-0-0-0-0-0-0-0-0-555--555----555--555----|
D) 0-0-0-0-0-0-0-0-0-0-0-0-0-0-0-0-555--555----555--555----|

e) ------------------------------------------|
B) ------------------------------------------|
G) ------------------------------------------|
D) ------------------------------------------|
A) 000---000-------000---000--000---000--000-|
D) 000---000-------000---000--000---000--000-|

e) ------------------------------------------|
B) ------------------------------------------|
G) ------------------------------------------| Repeat last 2 parts 2x
D) ------------------------------------------| 
A) 555---555-------555---555--555---555--555-| Second Time: HOLD OUT NOTES
D) 555---555-------555---555--555---555--555-|

Outro
e) ---------------------------------------------------|
B) ---------------------------------------------------|
G) ---------------------------------------------------|
D) ---------------------------------------------------|
A) 000---000-------000---000--000---000--000-000--000-|
D) 000---000-------000---000--000---000--000-000--000-|

That's it, Hope you enjoy. Please comment and rate!





Comments


Popular I See Stars tabs & chords
3d Tabs
3d 2 Tabs
Endless Sky Tabs
Glow Tabs
Mystery Wall Tabs
Nzt48 Tabs
Save The Cheerleader Tabs
The Big Bad Wolf Intro Tabs
This Isnt A Gameboy Tabs
What This Means To Me Tabs


Song lyrics



↑ Back to top | Tablatures and chords are parodies/interpretations of the original songs. You may use it for private study, scholarship, research or language learning purposes only
© 2014 AZChords.com Contact us | Privacy policy | DMCA | Add/correct tabs | Request tabs | Top 50 tabs