>
 >
Nzt48

Nzt48 Guitar Tabs

I See Stars - Nzt48 chords, tabs, tablatures, lyrics

Guitar lessons | Add/correct | Request | Top 50 tabs Artists:  A B C D E F G H I J K L M N O P Q R S T U V W X Y Z 0-9

Nzt48 Guitar Tabs – I See Stars

CD, Sheet music, Poster

Do you like Nzt48? Share with your friends now
Tabs
Tuning: Drop B
______________________________________________________________________________
Verse:
Both Guitars:
0:15
C# -------------------------------------------|
G# -------------------------------------------|
E  -------------------------------------------|
B  -------------------------------------------| x4
F# -------------------------------------------|
B  ---0-0--0-0-0--0-0-0--0-10--(x4)--12--(x4)-|

Lead Guitar:
0:31
C# -------------------------------------------|
G# -------------------------------------------|
E  -------------------------------------------|
B  -------------------------------------------| x3
F# -------------------------------------------|
B  ---0-0--0-0-0--0-0-0--0-10--(x4)--12--(x4)-|

0:42
C# ------------------------|
G# ------------------------|
E  ------------------------|
B  ------------------------|
F# ------------------------|
B  ---0-0--0-0-0--0-0-0--0-|

Rhythm Guitar:
0:31
C# ------|
G# ------|
E  ------|
B  ---0~-
F# ---0~-
B  ---0~-

Breakdown:
Both Guitars:
0:46
C# -----------------|
G# -----------------|
E  -----------------|
B  -----------------| x4
F# ---0--0--0000--0-|
B  ---0--0--0000--0-|
       *  *  ****  *
Chorus:
Lead Guitar: x4
1:01
C# ---------0-|
G# -------6---|
E  -----7-----|
B  ---8-------| x4
F# -----------|
B  -----------|

1:06
C# --------8----|
G# -----10---10-|
E  ---7---------|
B  -------------| x4
F# -------------|
B  -------------|

Rhythm Guitar:
1:01
C# ------------------------------------------------|
G# ------------------------------------------------|
E  ------------------------------------------------|
B  ---8--------5--------0~-------------------------| x4
F# ---8--(x8)--5--(x8)--0~-00000-00--0-000-0-00000-|
B  ---8--------5--------0~-00000-00--0-000-0-00000-|
                            ***** **  * *** * *****
Verse:
Both Guitars:
1:48
C# -------------------------------------------|
G# -------------------------------------------|
E  -------------------------------------------|
B  -------------------------------------------| x8
F# -------------------------------------------|
B  ---0-0--0-0-0--0-0-0--0-10--(x4)--12--(x4)-|

Pre-Breakdown:
Lead Guitar:
2:19
C# ------------------------------|
G# ---3-3-3-6-6-6-2-2-2-6-6-6-5b-|
E  ------------------------------|
B  ------------------------------| x3
F# ------------------------------|
B  ------------------------------|

2:30
C# -------------------|
G# ---3-3-3-----------|
E  ---------3-3-3-2-2-|
B  -------------------|
F# -------------------|
B  -------------------|

Rhythm Guitar:
2:19
C# ---------------------|
G# ---------------------|
E  ---------------------|
B  ---------------------| x2
F# ---0-0-0--0000--0000-|
B  ---0-0-0--0000--0000-|
       * * *  ****  ****
2:27
C# ------------------------|
G# ------------------------|
E  ------------------------|
B  ---0~-------------------|
F# ---0~---0-0-0-0-0-0-0-0-|
B  ---0~---0-0-0-0-0-0-0-0-|
            * * * * * * * *

Breakdown:
Lead Guitar:
2:35
C# ------------------------------|
G# ---3-3-3-6-6-6-2-2-2-6-6-6-5b-|
E  ------------------------------|
B  ------------------------------|
F# ------------------------------|
B  ------------------------------|

2:39
C# ------------------------------|
G# ---3-3-3-6-6-6-2-2-2-6-6-6-3b-|
E  ------------------------------|
B  ------------------------------|
F# ------------------------------|
B  ------------------------------|

2;43
C# ------------------------------|
G# ---3-3-3-6-6-6-2-2-2-6-6-6-4b-|
E  ------------------------------|
B  ------------------------------|
F# ------------------------------|
B  ------------------------------|

2:47
C# --------------------|
G# ---3-3-3------------|
E  ---------3-3-3-2-2b-|
B  --------------------|
F# --------------------|
B  --------------------|

2:51
C# ------------------------------|
G# ---3-3-3-6-6-6-2-2-2-6-6-6-5b-|
E  ------------------------------|
B  ------------------------------| x3
F# ------------------------------|
B  ------------------------------|

3:02
C# --------------------|
G# ---3-3-3------------|
E  ---------3-3-3-2-2b-|
B  --------------------|
F# --------------------|
B  --------------------|

Rhythm Guitar:
2:35
C# --------------------------------|
G# --------------------------------|
E  --------------------------------|
B  --------------------------------| x4
F# ---0-00--0000--0000--0-00--0000-|
B  ---0-00--0000--0000--0-00--0000-|
       * **  ****  ****  * **  ****
Pre-Chorus
Lead Guitar:
3:22
C# ---?
G# ---?
E  ---?
B  ---?
F# ---?
B  ---?

Rhythm Guitar:
3:22
C# ------------|
G# ------------|
E  ------------|
B  ---0--------|
F# ---0--(x32)-|
B  ---0--------|

Chorus:
Lead Guitar: x4
3:29
C# ---------0-|
G# -------6---|
E  -----7-----|
B  ---8-------| x4
F# -----------|
B  -----------|

3:34
C# --------8----|
G# -----10---10-|
E  ---7---------|
B  -------------| x4
F# -------------|
B  -------------|

Rhythm Guitar:
3:29
C# ------------------------------------------------|
G# ------------------------------------------------|
E  ------------------------------------------------|
B  ---8--------5--------0~-------------------------| x4
F# ---8--(x8)--5--(x8)--0~-00000-00--0-000-0-00000-|
B  ---8--------5--------0~-00000-00--0-000-0-00000-|
                            ***** **  * *** * *****
Outro:
Both Guitars:
4:02
C# -----------------|
G# -----------------|
E  -----------------|
B  -----------------| x4
F# ---0--0--0000--0-|
B  ---0--0--0000--0-|
       *  *  ****  *

Legend:
~     Hold Note
*     Palm Mute
b     Bend





Comments


Popular I See Stars tabs & chords
Project Wakeup Bass Tabs
The Big Bad Wolf Bass Tabs
Your Love Chords
3d Tabs
3d 2 Tabs
Project Wakeup 3 Tabs
Still Not Quite Enough Tabs
The Common Hours Tabs
Underneath Every Smile Tabs
Your Love Tabs


Song lyrics



↑ Back to top | Tablatures and chords are parodies/interpretations of the original songs. You may use it for private study, scholarship, research or language learning purposes only
© 2014 AZChords.com Contact us | Privacy policy | DMCA | Add/correct tabs | Request tabs | Top 50 tabs