>
 >
Mystery Wall

Mystery Wall Guitar Tabs

I See Stars - Mystery Wall chords, tabs, tablatures, lyrics

Guitar lessons | Add/correct | Request | Top 50 tabs Artists:  A B C D E F G H I J K L M N O P Q R S T U V W X Y Z 0-9

Mystery Wall Guitar Tabs – I See Stars

CD, Sheet music, Poster

Do you like Mystery Wall? Share with your friends now
Tabs
Tuning: Drop D
______________________________________________________________________________
Intro:
0:06
E ------|
B ------|
G ------|
D ---0~-| x2
A ---0~-
D ---0~-

Verse:
0:17
E --------------------------------------------|
B --------------------------------------------|
G --------------------------------------------|
D --------------------------------------------| x4
A ---0-0-0-0-------000-00-000-00------0-0-0-0-|
D ---0-0-0-0--0-0--000-00-000-00-0-0--0-0-0-0-|
      * * * *       *** ** *** **      * * * *
Chorus:
0:42
E ------------------------------|
B ------------------------------|
G ------------------------------|
D ---0--------8--------7--------| x4
A ---0--(x8)--8--(x8)--7--(x16)-|
D ---0--------8--------7--------|

Chorus Part 2: x2
1:05
E ------------------------------------------|
B ---15--(x4)--17--(x4)--18--(x4)-----------|
G ---------------------------------17--(x4)-|
D ------------------------------------------|
A ------------------------------------------|
D ------------------------------------------|

E ------------------------------------------|
B -------------18--(x4)--17--(x4)-----------|
G ---15--(x4)----------------------17--(x4)-|
D ------------------------------------------|
A ------------------------------------------|
D ------------------------------------------|

Verse:
1:16
E --------------------------------------------------------------|
B --------------------------------------------------------------|
G --------------------------------------------------------------|
D --------------------------------------------------------------| x2
A ---000-0-0-000-------------------000-0-0-000------------------|
D ---000-0-0-000-8--(x4)--7--(x4)--000-0-0-000-5--(x4)--7--(x4)-|
      *** * * ***                   *** * * ***
1:27
E --------------------------------------------|
B --------------------------------------------|
G --------------------------------------------|
D --------------------------------------------|
A ---000-0-0-000-0-0--0--000-0-0-000--000-000-|
D ---000-0-0-000-0-0--0--000-0-0-000--000-000-|
      *** * * *** * *  *  *** * * ***  *** ***
1:33
E -------------------------------------------------|
B -------------------------------------------------|
G -------------------------------------------------|
D -------------------------------------------------|
A ---000-0-0-000-0-0--0--000-0-0-000-0-000-000-000-|
D ---000-0-0-000-0-0--0--000-0-0-000-0-000-000-000-|
      *** * * *** * *  *  *** * * *** * *** *** ***
Chorus:
1:39
E ------------------------------|
B ------------------------------|
G ------------------------------|
D ---0--------8--------7--------| x4
A ---0--(x8)--8--(x8)--7--(x16)-|
D ---0--------8--------7--------|

Chorus Part 2: x2
2:01
E ------------------------------------------|
B ---15--(x4)--17--(x4)--18--(x4)-----------|
G ---------------------------------17--(x4)-|
D ------------------------------------------|
A ------------------------------------------|
D ------------------------------------------|

E ------------------------------------------|
B -------------18--(x4)--17--(x4)-----------|
G ---15--(x4)----------------------17--(x4)-|
D ------------------------------------------|
A ------------------------------------------|
D ------------------------------------------|

Breakdown:
2:13
E --------------------------------|
B --------------------------------|
G --------------------------------|
D ---0~-----------------0~--------|
A ---0~---0000---0000---0~---0000-|
D ---0~---0000---0000---0~---0000-|
           ****   ****        ****
2:35
E ---------------------------------------|
B ---------------------------------------|
G ---------------------------------------|
D ---------------------------------------| x2
A ---0000-00--0000--000000-0000-00--0000-|
D ---0000-00--0000--000000-0000-00--0000-|
      **** **  ****  ****** **** **  ****
Outro:
2:51
E ------------------------------------------|
B ------------------------------------------|
G ------------------------------------------|
D ---0~--10~--8~------(Slowly let off)------| x2
A ---0~--10~--8~--88888888-1010101010101010-|
D ---0~--10~--8~--88888888-1010101010101010-|
                   ******** * * * * * * * *
3:25
E ---17--(x24)--------------------------------------|
B --------------18--(x8)--17--(x32)-----------------|
G -----------------------------------17h19----------|
D -----------------------------------------19p17-17-| x2
A --------------------------------------------------|
D --------------------------------------------------|

3:57
E ---20~-|
B -------|
G -------|
D -------|
A -------|
D -------|

Legend:
~     Let Note Ring
*     Palm Mute
h     Hammer-On
p     Pull-Off





Comments


Popular I See Stars tabs & chords
3d 2 Tabs
Comfortably Confused Tabs
Project Wakeup Tabs
Project Wakeup 1 Tabs
Project Wakeup 2 Tabs
Save The Cheerleader Tabs
The End Of The World Party Tabs
Underneath Every Smile 1 Tabs
What This Means To Me Tabs
Your Love Tabs


Song lyrics



↑ Back to top | Tablatures and chords are parodies/interpretations of the original songs. You may use it for private study, scholarship, research or language learning purposes only
© 2014 AZChords.com Contact us | Privacy policy | DMCA | Add/correct tabs | Request tabs | Top 50 tabs