>
 >
Filth Friends Unite

Filth Friends Unite Guitar Tabs

I See Stars - Filth Friends Unite chords, tabs, tablatures, lyrics

Guitar lessons | Add/correct | Request | Top 50 tabs Artists:  A B C D E F G H I J K L M N O P Q R S T U V W X Y Z 0-9

Filth Friends Unite Guitar Tabs – I See Stars

CD, Sheet music, Poster

Do you like Filth Friends Unite? Share with your friends now
Tabs
Tuning: Drop C
______________________________________________________________________________
Intro:
Both Guitars:
0:08
D ------|
A ------|
F ------|
C ---0~-|
G ---0~-|
C ---0~-|

Verse:
0:25
D --------------------------|
A --------------------------|
F --------------------------|
C --------------------------| x2
G ---00-0-0-000-00000-00-00-|
C ---00-0-0-000-00000-00-00-|
      ** * * *** ***** ** **
0:33
D --------------------------|
A --------------------------|
F --------------------------|
C --------------------------|
G ---0----0-000-00000-00-00-|
C ---0----0-000-00000-00-00-|
      *    * *** ***** ** **
0:37
D --------------------------|
A --------------------------|
F --------------------------|
C --------------------------|
G ---00-0-0-000-00000-00-00-|
C ---00-0-0-000-00000-00-00-|
      ** * * *** ***** ** **
Lead Guitar:
0:40
D -----------------------------------------------|
A -----------------------------------------------|
F ---7-9-10-7-9-10-9h10-12--7-9-10-7-9-10-9h10---|
C ---------------------------------------------7-|
G -----------------------------------------------|
C -----------------------------------------------|

D -------------------------------------------|
A -------------------------------------------|
F ---7-9-10-7-9-10-9h10-12--10-7-9-10-9-7-2b-|
C -------------------------------------------| x2
G -------------------------------------------|
C -------------------------------------------|

Rhythm Guitar:
0:40
D --------------------------|
A --------------------------|
F --------------------------|
C --------------------------| x3
G ---00-0-0-000-00000-00-00-|
C ---00-0-0-000-00000-00-00-|
      ** * * *** ***** ** **
0:52
D ---------------------------------|
A ---------------------------------|
F ---------------------------------|
C ---------------------------------|
G ---00~-0~-0~-000~-00000~-00~-00~-|
C ---00~-0~-0~-000~-00000~-00~-00~-|
      **  *  *  ***  *****  **  **
Pre-Chorus:
Lead Guitar:
0:56
D -------------------------------|
A ------------10~-----------~13~-|
F ---10~--9~-------10~--9~-------|
C -------------------------------| x2
G -------------------------------|
C -------------------------------|

Rhythm Guitar:
0:56
D -------------------------------|
A -------------------------------|
F -------------------------------|
C ---0~---3~---5~---0~---3~---5~-|
G ---0~---3~---5~---0~---3~---5~-|
C ---0~---3~---5~---0~---3~---5~-|

Chorus:
Lead Guitar:
1:07
D ---------------------------------------------------------------|
A ----------------------10--(x12)---------------------13--(x12)--|
F ---10--(x3)--9--(x3)-------------10--(x3)--9--(x3)-------------|
C ---------------------------------------------------------------| x4
G ---------------------------------------------------------------|
C ---------------------------------------------------------------|

Rhythm Guitar:
1:07
D ---------------------------------------------|
A ---------------------------------------------|
F ---------------------------------------------|
C ---0---------3---------5---------8~-5~-7~-0~-|
G ---0--(x16)--3--(x16)--5--(x16)--8~-5~-7~-0~-|
C ---0---------3---------5---------8~-5~-7~-0~-|

1:18
D ------------------------------------------|
A ------------------------------------------|
F ------------------------------------------|
C ---0--------3--------5--------8~-5~-7~-0~-|
G ---0--(x8)--3--(x8)--5--(x8)--8~-5~-7~-0~-|
C ---0--------3--------5--------8~-5~-7~-0~-|

Verse 2:
Both Guitars:
1:28
D ---------------|
A ---------------|
F ---------------|
C ---0~--8~--5~--|
G ---0~--8~--5~--|
C ---0~--8~--5~--|

1:34
D ------------------------------------------------------------|
A ------------------------------------------------------------|
F ------------------------------------------------------------|Lead & Rhythm
C --------------------------------------------Alternate Here--| x4
G ----------------------------------------------00-00-00-00---|
C ---5p0-5p0--5p0-5p0-5p0-5p0-5p0--5p0-5p0--5p0-11-11-11-11---|
                                                 ** ** ** **
Chorus:
Lead Guitar:
1:55
D ---------------------------------------------------------------|
A ----------------------10--(x12)---------------------13--(x12)--|
F ---10--(x3)--9--(x3)-------------10--(x3)--9--(x3)-------------|
C ---------------------------------------------------------------| x4
G ---------------------------------------------------------------|
C ---------------------------------------------------------------|

Rhythm Guitar:
1:55
D ---------------------------------------------|
A ---------------------------------------------|
F ---------------------------------------------|
C ---0---------3---------5---------8~-5~-7~-0~-|
G ---0--(x16)--3--(x16)--5--(x16)--8~-5~-7~-0~-|
C ---0---------3---------5---------8~-5~-7~-0~-|

2:06
D ------------------------------------------|
A ------------------------------------------|
F ------------------------------------------|
C ---0--------3--------5--------8~-5~-7~-0~-|
G ---0--(x8)--3--(x8)--5--(x8)--8~-5~-7~-0~-|
C ---0--------3--------5--------8~-5~-7~-0~-|

Bridge:
Lead Guitar:
2:16
D ---------------------|
A ---------------------|
F ---------------------|
C -----Quietly in------| This is Repeated
G -----background------| until the breakdown
C ---00-0-00-0-00-0-00-|

Rhythm Guitar:
2:16
D --------|
A --------|
F --------|
C ---REST-|
G --------|
C --------|

Breakdown:
Both Guitars:
2:49
D ------------------------------|
A ------------------------------|
F ------------------------------|
C ------------------------------| x4
G ---0-0-0-0-0--0-0--0-0-0--0-0-|
C ---0-0-0-0-0--0-0--0-0-0--0-0-|
      * * * * *  * *  * * *  * *
3:10
D ------|
A ------|
F ------|
C ---0~-|
G ---0~-|
C ---0~-|

Verse 3:
Both Guitars:
3:26
D --------------------------|
A --------------------------|
F --------------------------|
C --------------------------| x2
G ---00-0-0-000-00000-00-00-|
C ---00-0-0-000-00000-00-00-|
      ** * * *** ***** ** **
3:34
D --------------------------|
A --------------------------|
F --------------------------|
C --------------------------|
G ---0----0-000-00000-00-00-|
C ---0----0-000-00000-00-00-|
      *    * *** ***** ** **
3:38
D --------------------------|
A --------------------------|
F --------------------------|
C --------------------------|
G ---00-0-0-000-00000-00-00-|
C ---00-0-0-000-00000-00-00-|
      ** * * *** ***** ** **
3:42
D --------------------------|
A --------------------------|
F --------------------------|
C --------------------------| x3
G ---00-0-0-000-00000-00-00-|
C ---00-0-0-000-00000-00-00-|
      ** * * *** ***** ** **
3:54
D ---------------------------------|
A ---------------------------------|
F ---------------------------------|
C ---------------------------------|
G ---00~-0~-0~-000~-00000~-00~-00~-|
C ---00~-0~-0~-000~-00000~-00~-00~-|
      **  *  *  ***  *****  **  **

Legend:
~     Let Note Ring
*     Palm Muted
h     Hammer-On
b     Bend
p     Pull-Off

END





Comments


Popular I See Stars tabs & chords
3d Bass Tabs
Project Wakeup Bass Tabs
Underneath Every Smile Chords
3d 1 Tabs
Endless Sky Tabs
Project Wakeup 3 Tabs
The End Of The World Party Tabs
Underneath Every Smile 1 Tabs
What This Means To Me Tabs
Ibelieve Ukulele


Song lyrics



↑ Back to top | Tablatures and chords are parodies/interpretations of the original songs. You may use it for private study, scholarship, research or language learning purposes only
© 2014 AZChords.com Contact us | Privacy policy | DMCA | Add/correct tabs | Request tabs | Top 50 tabs