» » »

I See Stars, Endless Sky Tabs (ver.1)

Artists:  A B C D E F G H I J K L M N O P Q R S T U V W X Y Z # 

Endless Sky Tabs (ver.1)

I See Stars Tabs
Rating:
5/5 (1 vote)
Endless Sky lessons Tabs too difficult? Try these video lessons and learn fast
                Tuning: Drop C
______________________________________________________________________________
Intro:
0:08
D-------------------------------------------------------------------------|
A-------------------------------------------------------------------------|
F-------------------------------------------------------------------------|
C-------------------------------------------------------------------------| x2
G---000000000000000---000000000000000---5555555555555555-8888888888888888-|
C---000000000000000-3-000000000000000-3-5555555555555555-8888888888888888-|
    ***************   ***************   **************** ****************
Verse:
0:23
D---------------------------------------------------------|
A---------------------------------------------------------|
F---------------------------------------------------------|
C---------------------------------------------------------|
G---0000-0000-00--0--0--0-0--0-0000-0000-00--0--0--0-0--0-|
C---0000-0000-00--0--0--0-0--0-0000-0000-00--0--0--0-0--0-|
    **** **** **  *  *  * *  * **** **** **  *  *  * *  *
0:31
D------------------------------------------------------------|
A------------------------------------------------------------|
F------------------------------------------------------------|
C---------------------------------------------------------0~-|
G---3333-3333-33--3--3--3-3--3-5555-5555-55--5--5--5-5--5-0~-|
C---3333-3333-33--3--3--3-3--3-5555-5555-55--5--5--5-5--5-0~-|
    **** **** **  *  *  * *  * **** **** **  *  *  * *  *
Breakdown:
0:39
D-----------------------------|
A-----------------------------|
F-----------------------------|
C-----------------------------|
G---0-0000-0000-00--0--0--0-0-| x5
C---0-0000-0000-00--0--0--0-0-|
    * **** **** **  *  *  * *
Chorus:
1:02
D-----------------------------------|
A-----------------------------------|
F-----------------------------------|
C-----------------------------------| x3
G-----------------------------------|
C---000-000-300-300-555-555-888-888-|

Pre-Verse: x2
1:33
D---13-------13-------13----12-------12-------12----|
A------15-------15-------15----15-------15-------15-|
F---------14-------14-------------14-------14-------|
C---------------------------------------------------|
G---------------------------------------------------|
C---------------------------------------------------|

D---12-------12-------12----13-------13-------13----|
A------15-------15-------15----15-------15-------15-|
F---------14-------14-------------14-------14-------|
C---------------------------------------------------|
G---------------------------------------------------|
C---------------------------------------------------|

Verse 2:
1:48
D---------------------------------------------------------|
A---------------------------------------------------------|
F---------------------------------------------------------|
C---------------------------------------------------------|
G---0000-0000-00--0--0--0-0--0-0000-0000-00--0--0--0-0--0-|
C---0000-0000-00--0--0--0-0--0-0000-0000-00--0--0--0-0--0-|
    **** **** **  *  *  * *  * **** **** **  *  *  * *  *
1:56
D------------------------------------------------------|
A------------------------------------------------------|
F------------------------------------------------------|
C------------------------------------------------------|
G---3333-3333-33--3--3--3-3--3-5555-5555-55--5--5--5-5-|
C---3333-3333-33--3--3--3-3--3-5555-5555-55--5--5--5-5-|
    **** **** **  *  *  * *  * **** **** **  *  *  * *
Chorus:
2:04
D-----------------------------------|
A-----------------------------------|
F-----------------------------------|
C-----------------------------------| x4
G-----------------------------------|
C---000-000-300-300-555-555-888-888-|

Pre-Breakdown 2:
2:35
D-----------------------------------|
A-----------------------------------|
F-----------------------------------|
C-----------------------------------| x2
G-----------------------------------|
C---000-000-300-300-555-555-888-888-|

Breakdown 2:
2:58
D------------------------------------|
A-----------6~-------------6~-----6~-|
F-----------9~-------------9~-----9~-|
C------------------------------------| x8
G---0-00-00----000-0-00-00----0-0----|
C---0-00-00----000-0-00-00----0-0----|
    * ** **    *** * ** **    * *
Legend:
*     Palm Muted
~     Let the Note Ring
            
Submit corrections

comments powered by Disqus
↑ Back to top | I See Stars Tabs for Endless Sky. Lyrics for acoustic guitar and electric guitar. Tablatures and chords are parodies/interpretations of the original songs. You may use it for private study, scholarship, research or language learning purposes only