» » »

Comfortably Confused Tabs (ver.1)

Artists:  A B C D E F G H I J K L M N O P Q R S T U V W X Y Z # 

Comfortably Confused Tabs (ver.1)

I See Stars
Rating:
4/5 (1 vote)

Hard to play? Try these video lessons and learn fast.
                Comfortably Confused- I See Stars
This is my first tab, the intro is right, so is the verse and chorus. I’m not sure about 
strum pattern though. And I tried my best on the bridge. I might post a second version 
a second guitar part if I figure it out.
Drop D

Intro
e|-------------------------------|
B|-------------------------------|
G|-------------------------------|
D|--0~~--------------------------|
A|--0~~--------------------------|
D|--0~~--------------------------|

Verse
e|------------------------------------------|
B|------------------------------------------|
G|------------------------------------------|
D|--3—3-3333--7-7-7777---3—3-3333--7-7-7777-|
A|--3-3-3333--7-7-7777---3—3-3333--7-7-7777-|
D|--3-3-3333--7-7-7777---3—3-3333--7-7-7777-|


Chorus
e|---------------------------------------------------|
B|---------------------------------------------------|
G|--------------------------7-7777--5-5555--3-3333---|
D|--3—3-3-3333--7-7-7-7777--7-7777--5-5555--3-3333---|X2
A|--3-3-3-3333--7-7-7-7777--5-5555--3-3333--1-1111---|
D|--3-3-3-3333--7-7-7-7777---------------------------|


Second Chorus
e|-----------------------------------------------------------|
B|-----------------------------------------------------------|
G|--------------------------7-7777--5-5555--3-3333-----------|
D|--3—3-3-3333--7-7-7-7777--7-7777--5-5555--3-3333--8-7-5-3--|
A|--3-3-3-3333--7-7-7-7777--5-5555--3-3333--1-1111--8-7-5-3--|
D|--3-3-3-3333--7-7-7-7777--------------------------8-7-5-3--|


Bridge (figure out strumming, too hard to tab)
e|---8--10------------------—---------------------------|
B|---10-10----------------------------------------------|
G|----------10---9----7----5/7--------------------------|
D|----------10---10---7----5/7--------------------------|
A|----------8----7----5----3/5--------------------------|
D|------------------------------------------------------|


Bridge (keyboard)
e|-17-21-17----------17-21-17-—--------17-21-17--------------------|
B|----------21-18-18----------21-17-17----------21-15-15-----------|
G|-----------------------------------------------------------------|
D|-----------------------------------------------------------------|X2
A|-----------------------------------------------------------------|
D|-----------------------------------------------------------------|
(it goes back up to 17 again, but it couldn’t fit on the end and I wanted to save space)
            
Hard to play? Try these video lessons and learn fast. | Correct




comments powered by Disqus
↑ Back to top | Tablatures and chords are parodies/interpretations of the original songs. You may use it for private study, scholarship, research or language learning purposes only