» » »

I See Stars, 3d Tabs (ver.2)

Artists:  A B C D E F G H I J K L M N O P Q R S T U V W X Y Z # 

3d Tabs (ver.2)

I See Stars Tabs
Rating:
5/5 (2 votes)
3d lessons Tabs too difficult? Try these video lessons and learn fast
                this. If you have critics about some parts, just tell me and I'll fix them ).

Chorus
e|--------------------------------------------------------|
B|---------------------6------6-------6-6-6-6-6-6---------|
G|---------------------9------9-------9-9-9-9-9-9---------|
D|--3------10-------0-0----0-0-----0-0--------------------| x2
A|--3-x8---10-x8----0-0----0-0-----0-0--------------------|
D|--3------10-------0-0----0-0-----0-0--------------------|


e|--------------------------------------------------------|
B|--13-13--13-13--13-13--11-11--11-11--11-11--------------|
G|--x--x---x--x---x--x---x--x---x--x---x--x---------------|
D|--10-10--10-10--10-10--10-10--10-10--10-10--------------|
A|--------------------------------------------------------|
D|--------------------------------------------------------|


e|--------------------------------------------------------|
B|--------------------------------------------------------|
G|-----9--------------------------------------------------|
D|-----x--(couple of times)-------------------------------|
A|-----7--------------------------------------------------|
D|--------------------------------------------------------|


Verse1 (palm-muted, find rythm by yourself)
e|--------------------------------------------------------|
B|--------------------------------------------------------|
G|--7-----------3-----5-----------------------------------|
D|--7-----3-----3-----5-----------------------------------|
A|--5-----3-----1-----3-----------------------------------|
D|--------3-----------------------------------------------|

Verse1 (normal, no palm-mute)
e|--------------------------------------------------------|
B|--------------------------------------------------------|
G|--7-----------3-----5-----------------------------------|
D|--7-----3-----3-----5-----------------------------------|
A|--5-----3-----1-----3-----------------------------------|
D|--------3-----------------------------------------------|


Chorus
e|--------------------------------------------------------|
B|---------------------6------6-------6-6-6-6-6-6---------|
G|---------------------9------9-------9-9-9-9-9-9---------|
D|--3------10-------0-0----0-0-----0-0--------------------| x2
A|--3-x8---10-x8----0-0----0-0-----0-0--------------------|
D|--3------10-------0-0----0-0-----0-0--------------------|


e|--------------------------------------------------------|
B|--13-13--13-13--13-13--11-11--11-11--11-11--------------|
G|--x--x---x--x---x--x---x--x---x--x---x--x---------------|
D|--10-10--10-10--10-10--10-10--10-10--10-10--------------|
A|--------------------------------------------------------|
D|--------------------------------------------------------|


Verse2 (palm-muted, find rythm by yourself)
e|--------------------------------------------------------|
B|--------------------------------------------------------|
G|--7-----------3-----5-----------------------------------|
D|--7-----3-----3-----5-----------------------------------|
A|--5-----3-----1-----3-----------------------------------|
D|--------3-----------------------------------------------|


e|--------------------------------------------------------|
B|--13-------------------11-------------------------------|
G|--x--(fast strum)------x--(fast strum)------------------|
D|--10-------------------10-------------------------------|
A|--------------------------------------------------------|
D|--------------------------------------------------------|


With the power of...
e|--------------------------------------------------------|
B|--------------------------------------------------------|
G|----------17-x8--15-x8-----------17-x8--15-x8-----------|
D|--0---------------------14-x16-----------------14-x12---|
A|--0-----------------------------------------------------|
D|--0-----------------------------------------------------|


Scream part
e|---------------------------|    |-----------------------------|
B|--------------------6-6----|    |-----------------------------|
G|--------------------9-9----|    |-----------------------------|
D|--0-0-3-0---0-0-3-0--------| x4 |----0-0-0-0-00---------------|
A|--0-0-3-0---0-0-3-0--------|    |----0-0-0-0-00---------------|
D|--0-0-3-0---0-0-3-0--------|    |----0-0-0-0-00---------------|



Chorus
e|--------------------------------------------------------|
B|---------------------6------6-------6-6-6-6-6-6---------|
G|---------------------9------9-------9-9-9-9-9-9---------|
D|--3------10-------0-0----0-0-----0-0--------------------| x3
A|--3-x8---10-x8----0-0----0-0-----0-0--------------------|
D|--3------10-------0-0----0-0-----0-0--------------------|


e|--------------------------------------------------------|
B|--------------------------------------------------------|
G|--------------------------------------------------------|
D|--3------10-------0-------------------------------------|
A|--3-x8---10-x8----0-------------------------------------|
D|--3------10-------0-------------------------------------|


End
e|---------------------------------------------------------------|
B|---------------------------------------------------------------|
G|---------------------------------------------------------------|
D|----0---(it's just open strings, u only have to find a rhytm)--|
A|----0----------------------------------------------------------|
D|----0----------------------------------------------------------|


Enjoy! :) If you find some mistakes, comment )
            

comments powered by Disqus
↑ Back to top | I See Stars Tabs for 3d. Lyrics for acoustic guitar and electric guitar. Tablatures and chords are parodies/interpretations of the original songs. You may use it for private study, scholarship, research or language learning purposes only