>
 >
3d

3d Guitar Tabs

I See Stars - 3d chords, tabs, tablatures, lyrics

Guitar lessons | Add/correct | Request | Top 50 tabs Artists:  A B C D E F G H I J K L M N O P Q R S T U V W X Y Z 0-9

3d Guitar Tabs – I See Stars

CD, Sheet music, Poster

Do you like 3d? Share with your friends now
Bass TabsTabsTabs v2Tabs v3


Legends:

 . - palm mute
 x _ dead string
 h _ hammer on
 ~ _ let it ring
 / - slide forward

Intro:

drums/both guitars.

e|---------------|
B|---6-6-6-6-6---|
G|---9-9-9-9-9---|
D|---------------|
A|---------------|
D|---------------|



Sugar coated white lies 
Can only get you so far 
Before you get caught up in the middle 

guitar 1.

e|--------------------------------------|
B|--------------------------------------|
G|--------------------5-5-5-5-5-5-5-5---|
D|---3-3-3-3-3-3-3-3--5-5-5-5-5-5-5-5---|
A|---3-3-3-3-3-3-3-3--3-3-3-3-3-3-3-3---|
D|---3-3-3-3-3-3-3-3--------------------|

e|------------------------------------------|
B|--------6-6-------6-6-------6-6-6-6-6-6---|
G|--------9-9-------9-9-------9-9-9-9-9-9---|
D|---0-0-------0-0-------0-0----------------|
A|---0-0-------0-0-------0-0----------------|
D|---0-0-------0-0-------0-0----------------|



guitar 2.

e|--------------------------------------|
B|--------------------------------------|
G|--------------------5-5-5-5-5-5-5-5---|
D|---3-3-3-3-3-3-3-3--5-5-5-5-5-5-5-5---|
A|---3-3-3-3-3-3-3-3--3-3-3-3-3-3-3-3---|
D|---3-3-3-3-3-3-3-3--------------------|


e|-------------------------------------|
B|-------------------------------------|
G|-------------------------------------|
D|---0-0-0-0-0-0-0-0-0-0-0-0-0-0-0-0---|
A|---0-0-0-0-0-0-0-0-0-0-0-0-0-0-0-0---|
D|---0-0-0-0-0-0-0-0-0-0-0-0-0-0-0-0---|




I'm a human too 
My life has value 
And everybody will think the same

guitar 1.

e|--------------------------------------|
B|--------------------------------------|
G|--------------------5-5-5-5-5-5-5-5---|
D|---3-3-3-3-3-3-3-3--5-5-5-5-5-5-5-5---|
A|---3-3-3-3-3-3-3-3--3-3-3-3-3-3-3-3---|
D|---3-3-3-3-3-3-3-3--------------------|


e|------------------------------------------|
B|--------6-6-------6-6-------6-6-6-6-6-6---|
G|--------9-9-------9-9-------9-9-9-9-9-9---|
D|---0-0-------0-0-------0-0----------------|
A|---0-0-------0-0-------0-0----------------|
D|---0-0-------0-0-------0-0----------------|



guitar 2.

e|--------------------------------------|
B|--------------------------------------|
G|--------------------5-5-5-5-5-5-5-5---|
D|---3-3-3-3-3-3-3-3--5-5-5-5-5-5-5-5---|
A|---3-3-3-3-3-3-3-3--3-3-3-3-3-3-3-3---|
D|---3-3-3-3-3-3-3-3--------------------|


e|-------------------------------------|
B|-------------------------------------|
G|-------------------------------------|
D|---0-0-0-0-0-0-0-0-0-0-0-0-0-0-0-0---|
A|---0-0-0-0-0-0-0-0-0-0-0-0-0-0-0-0---|
D|---0-0-0-0-0-0-0-0-0-0-0-0-0-0-0-0---|




both guitars.

e|---8--8-8--8--8-8--8---6--6-6--6--6-6--6--------------------------------------|
B|---x--x-x--x--x-x--x---x--x-x--x--x-x--x---6--6-6--6-6-6-6--6--6-6--6-6-6-6---|
G|---5--5-5--5--5-5--5---5--5-5--5--5-5--5---9--9-9--9-9-9-9--9--9-9--9-9-9-9---|
D|------------------------------------------------------------------------------|
A|------------------------------------------------------------------------------|
D|------------------------------------------------------------------------------|




Good morning 
It's time to wake up
Sugar coated and white lies in the middle 
If this is a lie 
Then what am I? 

guitar 1.

e|----------------------------------------------------------------------|
B|----------------------------------------------------------------------|
G|----------------------------------------------------------------------|
D|---7-7-7-7-7-7-7-7-7-7-7-7-7-7-7-7------------------------------------|
A|---5-5-5-5-5-5-5-5-5-5-5-5-5-5-5-5--3-3-3-3-3-3-3-3-3-3-3-3-3-3-3-3---|
D|------------------------------------3-3-3-3-3-3-3-3-3-3-3-3-3-3-3-3---|
     . . . . . . . . . . . . . . . .  . . . . . . . . . . . . . . . .

e|----------------------------------------------------------------------|
B|----------------------------------------------------------------------|
G|----------------------------------------------------------------------|
D|---3-3-3-3-3-3-3-3-3-3-3-3-3-3-3-3--5-5-5-5-5-5-5-5-5-5-5-5-5-5-5-5---|
A|---1-1-1-1-1-1-1-1-1-1-1-1-1-1-1-1--3-3-3-3-3-3-3-3-3-3-3-3-3-3-3-3---|
D|----------------------------------------------------------------------|
     . . . . . . . . . . . . . . . .  . . . . . . . . . . . . . . . .


guitar 2.

e|---8--8-8--8--8-8--8---6--6-6--6--6-6--6-----------------------------------|
B|---x--x-x--x--x-x--x---x--x-x--x--x-x--x---6--6-6--6-6-6-6--6-6--6--6--6---|
G|---5--5-5--5--5-5--5---5--5-5--5--5-5--5---9--9-9--9-9-9-9--9-9--9--9--9---|
D|---------------------------------------------------------------------------|
A|---------------------------------------------------------------------------|
D|---------------------------------------------------------------------------|

e|---8--8-8--8--8-8--8---6--6-6--6--6-6--6--------------------------------|
B|---x--x-x--x--x-x--x---x--x-x--x--x-x--x---6--6-6--6--6-6-6-6-6-6-6-6---|
G|---5--5-5--5--5-5--5---5--5-5--5--5-5--5---9--9-9--9--9-9-9-9-9-9-9-9---|
D|------------------------------------------------------------------------|
A|------------------------------------------------------------------------|
D|------------------------------------------------------------------------|



Now i'm standing on my rooftop 
And I 
Sure could use someone to talk to 
Someone to make it alright 
'Cause I'm done pretending.


guitar 1.

00:
e|----------------------------------------------------------------------|
B|----------------------------------------------------------------------|
G|----------------------------------------------------------------------|
D|---7-7-7-7-7-7-7-7-7-7-7-7-7-7-7-7------------------------------------|
A|---5-5-5-5-5-5-5-5-5-5-5-5-5-5-5-5--3-3-3-3-3-3-3-3-3-3-3-3-3-3-3-3---|
D|------------------------------------3-3-3-3-3-3-3-3-3-3-3-3-3-3-3-3---|


e|----------------------------------------------------------------------|
B|----------------------------------------------------------------------|
G|----------------------------------------------------------------------|
D|---3-3-3-3-3-3-3-3-3-3-3-3-3-3-3-3--5-5-5-5-5-5-5-5-5-5-5-5-5-5-5-5---|
A|---1-1-1-1-1-1-1-1-1-1-1-1-1-1-1-1--3-3-3-3-3-3-3-3-3-3-3-3-3-3-3-3---|
D|----------------------------------------------------------------------|



guitar 2.

e|----------------------------------------------------------------------|
B|----------------------------------------------------------------------|
G|----------------------------------------------------------------------|
D|---7-7-7-7-7-7-7-7-7-7-7-7-7-7-7-7------------------------------------|
A|---5-5-5-5-5-5-5-5-5-5-5-5-5-5-5-5--3-3-3-3-3-3-3-3-3-3-3-3-3-3-3-3---|
D|------------------------------------3-3-3-3-3-3-3-3-3-3-3-3-3-3-3-3---|


e|---------------------------------------------------------------------|
B|---------------------------------------------------------------------|
G|---3-3-3-3-3-3-3-3/5-5-5-5-5-5-5-5/7-7-7-7-7-7-7-7/1010101010101010--|
D|---x-x-x-x-x-x-x-x/x-x-x-x-x-x-x-x/x-x-x-x-x-x-x-x/x-x-x-x-x-x-x-x---|
A|---1-1-1-1-1-1-1-1/3-3-3-3-3-3-3-3/5-5-5-5-5-5-5-5/8-8-8-8-8-8-8-8---|
D|---------------------------------------------------------------------|




Sugar coated white lies 
Can only get you so far 
Before you get caught up in the middle 

guitar 1.

e|--------------------------------------|
B|--------------------------------------|
G|--------------------5-5-5-5-5-5-5-5---|
D|---3-3-3-3-3-3-3-3--5-5-5-5-5-5-5-5---|
A|---3-3-3-3-3-3-3-3--3-3-3-3-3-3-3-3---|
D|---3-3-3-3-3-3-3-3--------------------|


e|------------------------------------------|
B|--------6-6-------6-6-------6-6-6-6-6-6---|
G|--------9-9-------9-9-------9-9-9-9-9-9---|
D|---0-0-------0-0-------0-0----------------|
A|---0-0-------0-0-------0-0----------------|
D|---0-0-------0-0-------0-0----------------|



guitar 2.

e|--------------------------------------|
B|--------------------------------------|
G|--------------------5-5-5-5-5-5-5-5---|
D|---3-3-3-3-3-3-3-3--5-5-5-5-5-5-5-5---|
A|---3-3-3-3-3-3-3-3--3-3-3-3-3-3-3-3---|
D|---3-3-3-3-3-3-3-3--------------------|


e|-------------------------------------|
B|-------------------------------------|
G|-------------------------------------|
D|---0-0-0-0-0-0-0-0-0-0-0-0-0-0-0-0---|
A|---0-0-0-0-0-0-0-0-0-0-0-0-0-0-0-0---|
D|---0-0-0-0-0-0-0-0-0-0-0-0-0-0-0-0---|




I'm a human too 
My life has value 
And everybody will think the same

guitar 1.

e|--------------------------------------|
B|--------------------------------------|
G|--------------------5-5-5-5-5-5-5-5---|
D|---3-3-3-3-3-3-3-3--5-5-5-5-5-5-5-5---|
A|---3-3-3-3-3-3-3-3--3-3-3-3-3-3-3-3---|
D|---3-3-3-3-3-3-3-3--------------------|


e|------------------------------------------|
B|--------6-6-------6-6-------6-6-6-6-6-6---|
G|--------9-9-------9-9-------9-9-9-9-9-9---|
D|---0-0-------0-0-------0-0----------------|
A|---0-0-------0-0-------0-0----------------|
D|---0-0-------0-0-------0-0----------------|



guitar 2.

e|--------------------------------------|
B|--------------------------------------|
G|--------------------5-5-5-5-5-5-5-5---|
D|---3-3-3-3-3-3-3-3--5-5-5-5-5-5-5-5---|
A|---3-3-3-3-3-3-3-3--3-3-3-3-3-3-3-3---|
D|---3-3-3-3-3-3-3-3--------------------|


e|-------------------------------------|
B|-------------------------------------|
G|-------------------------------------|
D|---0-0-0-0-0-0-0-0-0-0-0-0-0-0-0-0---|
A|---0-0-0-0-0-0-0-0-0-0-0-0-0-0-0-0---|
D|---0-0-0-0-0-0-0-0-0-0-0-0-0-0-0-0---|




both guitars.


e|---8--8-8--8--8-8--8---6--6-6--6--6-6--6---|
B|---x--x-x--x--x-x--x---x--x-x--x--x-x--x---|
G|---5--5-5--5--5-5--5---5--5-5--5--5-5--5---|
D|-------------------------------------------|
A|-------------------------------------------|
D|-------------------------------------------|



I never thought that I would live to see 
Everyone and me 
Struggling to breathe 
If this is a lie 
Then what am I? 

guitar 1.

e|----------------------------------------------------------------------|
B|----------------------------------------------------------------------|
G|----------------------------------------------------------------------|
D|---7-7-7-7-7-7-7-7-7-7-7-7-7-7-7-7------------------------------------|
A|---5-5-5-5-5-5-5-5-5-5-5-5-5-5-5-5--3-3-3-3-3-3-3-3-3-3-3-3-3-3-3-3---|
D|------------------------------------3-3-3-3-3-3-3-3-3-3-3-3-3-3-3-3---|
     . . . . . . . . . . . . . . . .  . . . . . . . . . . . . . . . .

e|----------------------------------------------------------------------|
B|----------------------------------------------------------------------|
G|----------------------------------------------------------------------|
D|---3-3-3-3-3-3-3-3-3-3-3-3-3-3-3-3--5-5-5-5-5-5-5-5-5-5-5-5-5-5-5-5---|
A|---1-1-1-1-1-1-1-1-1-1-1-1-1-1-1-1--3-3-3-3-3-3-3-3-3-3-3-3-3-3-3-3---|
D|----------------------------------------------------------------------|
     . . . . . . . . . . . . . . . .  . . . . . . . . . . . . . . . .






e|---8--8-8--8--8-8--8---6--6-6--6--6-6--6-----------------------------------|
B|---x--x-x--x--x-x--x---x--x-x--x--x-x--x---6--6-6--6-6-6-6--6-6--6--6--6---|
G|---5--5-5--5--5-5--5---5--5-5--5--5-5--5---9--9-9--9-9-9-9--9-9--9--9--9---|
D|---------------------------------------------------------------------------|
A|---------------------------------------------------------------------------|
D|---------------------------------------------------------------------------|

e|---8--8-8--8--8-8--8---6-6--6--6--6--6-6-6-6-6-6-6-6---|
B|---x--x-x--x--x-x--x---x-x--x--x--x--x-x-x-x-x-x-x-x---|
G|---5--5-5--5--5-5--5---5-5--5--5--5--5-5-5-5-5-5-5-5---|
D|-------------------------------------------------------|
A|-------------------------------------------------------|
D|-------------------------------------------------------|



                                 When the power of

guitar.2 only

e|---8---------------------------6----------------------------|
B|---x-(fast strums many times)--x-(fast strums many times)---|
G|---5---------------------------5----------------------------|
D|------------------------------------------------------------|
A|------------------------------------------------------------|
D|------------------------------------------------------------|



love!!! 

guitar 1.

e|-----------------------------------|
B|-----------------------------------|
G|-----------------------------------|
D|---0-0-0-0-0-0-0-0-0-0-0-0-0-0-0---|
A|---0-0-0-0-0-0-0-0-0-0-0-0-0-0-0---|
D|---0-0-0-0-0-0-0-0-0-0-0-0-0-0-0---|



guitar 2.

e|-------------|
B|---6~---6~---|
G|---9~---9~---|
D|-------------|
A|-------------|
D|-------------|



Exceeds the love for power 
The world will finally 
Finally know peace 

guitar 1.

(tremolo picking), just follow the beat of the drums
e|-------------------|
B|-------------------|
G|---17--15----------|
D|----------14--15---|
A|-------------------|
D|-------------------|


guitar.2

e|---8---------------------------6----------------------------|
B|---x-(fast strums many times)--x-(fast strums many times)---|
G|---5---------------------------5----------------------------|
D|------------------------------------------------------------|
A|------------------------------------------------------------|
D|------------------------------------------------------------|


e|-------------------------------------|
B|---6-6-6-6-6-6-6-6-6-6-6-6-6-6-6-6---|
G|---9-9-9-9-9-9-9-9-9-9-9-9-9-9-9-9---|
D|---0-0-0-0-0-0-0-0-0-0-0-0-0-0-0-0---|
A|---0-0-0-0-0-0-0-0-0-0-0-0-0-0-0-0---|
D|---0-0-0-0-0-0-0-0-0-0-0-0-0-0-0-0---|




If your band haven't got a symphonist for the breakdown, 
let the bass do it!!!


bass.

G|------------------------------|
D|------------------------------|
A|------------------------------|
D|---0h3-0--0h3-0--0-7-6-7------|




They fight for the center of universe with the sun 
your trapped in your tube 
And blind from the truth 
This is the future thats in store for you. 

both guitars.

e|----------------------------------|
B|-----------------7-7--7-7-7-7-7---|
G|-----------------9-9--9-9-9-9-9---|
D|---0h3-0--0h3-0-------------------|
A|---0h3-0--0h3-0-------------------|
D|---0h3-0--0h3-0-------------------|

e|----------------------------------|
B|-----------------7-7--7-7-7-7-7---|
G|-----------------9-9--9-9-9-9-9---|
D|---0h3-0--0h3-0-------------------|
A|---0h3-0--0h3-0-------------------|
D|---0h3-0--0h3-0-------------------|

e|----------------------------------|
B|-----------------7-7--7-7-7-7-7---|
G|-----------------9-9--9-9-9-9-9---|
D|---0h3-0--0h3-0-------------------|
A|---0h3-0--0h3-0-------------------|
D|---0h3-0--0h3-0-------------------|

e|----------------------------------|
B|-----------------7-7--7-7-7-7-7---|
G|-----------------9-9--9-9-9-9-9---|
D|---0h3-0--0h3-0-------------------|
A|---0h3-0--0h3-0-------------------|
D|---0h3-0--0h3-0-------------------|

e|---------------------|
B|---------------------|
G|---------------------|
D|---0---0---0-0-0-0---|
A|---0---0---0-0-0-0---|
D|---0---0---0-0-0-0---|




Sugar coated white lies 
Can only get you so far 
Before you get caught up in the middle 

guitar 1.

e|--------------------------------------|
B|--------------------------------------|
G|--------------------5-5-5-5-5-5-5-5---|
D|---3-3-3-3-3-3-3-3--5-5-5-5-5-5-5-5---|
A|---3-3-3-3-3-3-3-3--3-3-3-3-3-3-3-3---|
D|---3-3-3-3-3-3-3-3--------------------|


e|------------------------------------------|
B|--------6-6-------6-6-------6-6-6-6-6-6---|
G|--------9-9-------9-9-------9-9-9-9-9-9---|
D|---0-0-------0-0-------0-0----------------|
A|---0-0-------0-0-------0-0----------------|
D|---0-0-------0-0-------0-0----------------|



guitar 2.

e|--------------------------------------|
B|--------------------------------------|
G|--------------------5-5-5-5-5-5-5-5---|
D|---3-3-3-3-3-3-3-3--5-5-5-5-5-5-5-5---|
A|---3-3-3-3-3-3-3-3--3-3-3-3-3-3-3-3---|
D|---3-3-3-3-3-3-3-3--------------------|


e|-------------------------------------|
B|-------------------------------------|
G|-------------------------------------|
D|---0-0-0-0-0-0-0-0-0-0-0-0-0-0-0-0---|
A|---0-0-0-0-0-0-0-0-0-0-0-0-0-0-0-0---|
D|---0-0-0-0-0-0-0-0-0-0-0-0-0-0-0-0---|




I'm a human too 
My life has value 
And everybody will think the same

guitar 1.

e|--------------------------------------|
B|--------------------------------------|
G|--------------------5-5-5-5-5-5-5-5---|
D|---3-3-3-3-3-3-3-3--5-5-5-5-5-5-5-5---|
A|---3-3-3-3-3-3-3-3--3-3-3-3-3-3-3-3---|
D|---3-3-3-3-3-3-3-3--------------------|


e|------------------------------------------|
B|--------6-6-------6-6-------6-6-6-6-6-6---|
G|--------9-9-------9-9-------9-9-9-9-9-9---|
D|---0-0-------0-0-------0-0----------------|
A|---0-0-------0-0-------0-0----------------|
D|---0-0-------0-0-------0-0----------------|



guitar 2.

e|--------------------------------------|
B|--------------------------------------|
G|--------------------5-5-5-5-5-5-5-5---|
D|---3-3-3-3-3-3-3-3--5-5-5-5-5-5-5-5---|
A|---3-3-3-3-3-3-3-3--3-3-3-3-3-3-3-3---|
D|---3-3-3-3-3-3-3-3--------------------|


e|-------------------------------------|
B|-------------------------------------|
G|-------------------------------------|
D|---0-0-0-0-0-0-0-0-0-0-0-0-0-0-0-0---|
A|---0-0-0-0-0-0-0-0-0-0-0-0-0-0-0-0---|
D|---0-0-0-0-0-0-0-0-0-0-0-0-0-0-0-0---|



Sugar coated white lies 
Can only get you so far 
Before you get caught up in the middle 

guitar 1.

e|--------------------------------------|
B|--------------------------------------|
G|--------------------5-5-5-5-5-5-5-5---|
D|---3-3-3-3-3-3-3-3--5-5-5-5-5-5-5-5---|
A|---3-3-3-3-3-3-3-3--3-3-3-3-3-3-3-3---|
D|---3-3-3-3-3-3-3-3--------------------|


e|------------------------------------------|
B|--------6-6-------6-6-------6-6-6-6-6-6---|
G|--------9-9-------9-9-------9-9-9-9-9-9---|
D|---0-0-------0-0-------0-0----------------|
A|---0-0-------0-0-------0-0----------------|
D|---0-0-------0-0-------0-0----------------|



guitar 2.

e|--------------------------------------|
B|--------------------------------------|
G|--------------------5-5-5-5-5-5-5-5---|
D|---3-3-3-3-3-3-3-3--5-5-5-5-5-5-5-5---|
A|---3-3-3-3-3-3-3-3--3-3-3-3-3-3-3-3---|
D|---3-3-3-3-3-3-3-3--------------------|


e|-------------------------------------|
B|-------------------------------------|
G|-------------------------------------|
D|---0-0-0-0-0-0-0-0-0-0-0-0-0-0-0-0---|
A|---0-0-0-0-0-0-0-0-0-0-0-0-0-0-0-0---|
D|---0-0-0-0-0-0-0-0-0-0-0-0-0-0-0-0---|




I'm a human too 
My life has value 
And everybody will think the same

guitar 1.

e|--------------------------------------|
B|--------------------------------------|
G|--------------------5-5-5-5-5-5-5-5---|
D|---3-3-3-3-3-3-3-3--5-5-5-5-5-5-5-5---|
A|---3-3-3-3-3-3-3-3--3-3-3-3-3-3-3-3---|
D|---3-3-3-3-3-3-3-3--------------------|


e|------------------------------------------|
B|--------6-6-------6-6-------6-6-6-6-6-6---|
G|--------9-9-------9-9-------9-9-9-9-9-9---|
D|---0-0-------0-0-------0-0----------------|
A|---0-0-------0-0-------0-0----------------|
D|---0-0-------0-0-------0-0----------------|



guitar 2.

e|--------------------------------------|
B|--------------------------------------|
G|--------------------5-5-5-5-5-5-5-5---|
D|---3-3-3-3-3-3-3-3--5-5-5-5-5-5-5-5---|
A|---3-3-3-3-3-3-3-3--3-3-3-3-3-3-3-3---|
D|---3-3-3-3-3-3-3-3--------------------|


e|-------------------------------------|
B|-------------------------------------|
G|-------------------------------------|
D|---0-0-0-0-0-0-0-0-0-0-0-0-0-0-0-0---|
A|---0-0-0-0-0-0-0-0-0-0-0-0-0-0-0-0---|
D|---0-0-0-0-0-0-0-0-0-0-0-0-0-0-0-0---|




This is the portrait 
The man behind the curtain has painted for you 
As long as you choose to be separate 
you leave yourselves completely enslaved

guitar 1.

e|------------------------------------------|
B|------------------------------------------|
G|------------------------------------------|
D|---0-0-0-0--0-0-0-0--0-0-0-0-0--0-0-0-0---|
A|---0-0-0-0--0-0-0-0--0-0-0-0-0--0-0-0-0---|
D|---0-0-0-0--0-0-0-0--0-0-0-0-0--0-0-0-0---|
     . . . .  . . . .  . . . . .  . . . .

e|------------------------------------------|
B|------------------------------------------|
G|------------------------------------------|
D|---0-0-0-0--0-0-0-0--0-0-0-0-0--0-0-0-0---|
A|---0-0-0-0--0-0-0-0--0-0-0-0-0--0-0-0-0---|
D|---0-0-0-0--0-0-0-0--0-0-0-0-0--0-0-0-0---|
     . . . .  . . . .  . . . . .  . . . .

e|------------------------------------------|
B|------------------------------------------|
G|------------------------------------------|
D|---0-0-0-0--0-0-0-0--0-0-0-0-0--0-0-0-0---|
A|---0-0-0-0--0-0-0-0--0-0-0-0-0--0-0-0-0---|
D|---0-0-0-0--0-0-0-0--0-0-0-0-0--0-0-0-0---|

     . . . .  . . . .  . . . . .  . . . .
e|------------------------------------------|
B|------------------------------------------|
G|------------------------------------------|
D|---0-0-0-0--0-0-0-0--0-0-0-0-0--0-0-0-0---|
A|---0-0-0-0--0-0-0-0--0-0-0-0-0--0-0-0-0---|
D|---0-0-0-0--0-0-0-0--0-0-0-0-0--0-0-0-0---|
     . . . .  . . . .  . . . . .  . . . .



guitar 2.

e|------------------------------------------|
B|--------------------------------6-6-6-6---|
G|--------------------------------9-9-9-9---|
D|---0-0-0-0--0-0-0-0--0-0-0-0-0------------|
A|---0-0-0-0--0-0-0-0--0-0-0-0-0------------|
D|---0-0-0-0--0-0-0-0--0-0-0-0-0------------|
     . . . .  . . . .  . . . . .  

e|------------------------------------------|
B|--------------------------------6-6-6-6---|
G|--------------------------------9-9-9-9---|
D|---0-0-0-0--0-0-0-0--0-0-0-0-0------------|
A|---0-0-0-0--0-0-0-0--0-0-0-0-0------------|
D|---0-0-0-0--0-0-0-0--0-0-0-0-0------------|
     . . . .  . . . .  . . . . . 

e|------------------------------------------|
B|--------------------------------6-6-6-6---|
G|--------------------------------9-9-9-9---|
D|---0-0-0-0--0-0-0-0--0-0-0-0-0------------|
A|---0-0-0-0--0-0-0-0--0-0-0-0-0------------|
D|---0-0-0-0--0-0-0-0--0-0-0-0-0------------|
     . . . .  . . . .  . . . . .  

e|----------------------------------------|
B|--------------------------------3/5-6---|
G|----------------------------------------|
D|---0-0-0-0--0-0-0-0--0-0-0-0-0----------|
A|---0-0-0-0--0-0-0-0--0-0-0-0-0----------|
D|---0-0-0-0--0-0-0-0--0-0-0-0-0----------|
     . . . .  . . . .  . . . . .  



both guitar.

e|------------------------------------------|
B|------------------------------------------|
G|------------------------------------------|
D|---0-0-0-0--0-0-0-0--0-0-0-0-0--0-0-0-0---|
A|---0-0-0-0--0-0-0-0--0-0-0-0-0--0-0-0-0---|
D|---0-0-0-0--0-0-0-0--0-0-0-0-0--0-0-0-0---|
     . . . .  . . . .  . . . . .  . . . .

e|------------------------------------------|
B|------------------------------------------|
G|------------------------------------------|
D|---0-0-0-0--0-0-0-0--0-0-0-0-0--0-0-0-0---|
A|---0-0-0-0--0-0-0-0--0-0-0-0-0--0-0-0-0---|
D|---0-0-0-0--0-0-0-0--0-0-0-0-0--0-0-0-0---|
     . . . .  . . . .  . . . . .  . . . .

e|------------------------------------------|
B|------------------------------------------|
G|------------------------------------------|
D|---0-0-0-0--0-0-0-0--0-0-0-0-0--0-0-0-0---|
A|---0-0-0-0--0-0-0-0--0-0-0-0-0--0-0-0-0---|
D|---0-0-0-0--0-0-0-0--0-0-0-0-0--0-0-0-0---|

     . . . .  . . . .  . . . . .  . . . .
e|------------------------------------------|
B|------------------------------------------|
G|------------------------------------------|
D|---0-0-0-0--0-0-0-0--0-0-0-0-0--0-0-0-0---|
A|---0-0-0-0--0-0-0-0--0-0-0-0-0--0-0-0-0---|
D|---0-0-0-0--0-0-0-0--0-0-0-0-0--0-0-0-0---|
     . . . .  . . . .  . . . . .  . . . .





Comments


Popular I See Stars tabs & chords
Ibelieve Chords
Your Love Chords
3d 1 Tabs
Digital Renegade Tabs
Glow Tabs
Nzt48 Tabs
Project Wakeup 3 Tabs
Save The Cheerleader Tabs
This Isnt A Gameboy Tabs
What This Means To Me Tabs


Song lyrics



↑ Back to top | Tablatures and chords are parodies/interpretations of the original songs. You may use it for private study, scholarship, research or language learning purposes only
© 2014 AZChords.com Contact us | Privacy policy | DMCA | Add/correct tabs | Request tabs | Top 50 tabs