>
 >
To Tame A Land 1

To Tame A Land 1 Guitar Tabs

Iron Maiden - To Tame A Land 1 chords, tabs, tablatures, lyrics

Guitar lessons | Add/correct | Request | Top 50 tabs Artists:  A B C D E F G H I J K L M N O P Q R S T U V W X Y Z 0-9

To Tame A Land 1 Guitar Tabs – Iron Maiden

CD, Sheet music, Poster

Do you like To Tame A Land 1? Share with your friends now
TabsTabs v2
intro x2
                                                                        
E---2-2-3p2p0-|-2-2-3p2p0-|-2h3h5/7\5p3-2h3-|-2h3-2h3-2-0-|-------------
B-------------|-----------|-----------------|-------------|-------------
G-------------|-----------|-----------------|-------------|-------------
D-------------|-----------|-----------------|-------------|-------------
A-------------|-----------|-----------------|-------------|-------------
E-------------|-----------|-----------------|-------------|-------------
 
E-------------|-----------|-----2h3-2p0---0-|-2h3p2-0---0-|-------------
B---3-3-5p3---|-3-3-5p3---|-3h5---------3---|---------3---|-------------
G-----------6-|---------6-|-----------------|-------------|-------------
D-------------|-----------|-----------------|-------------|-------------
A-------------|-----------|-----------------|-------------|-------------
E-------------|-----------|-----------------|-------------|-------------

E---2-2-3p2p0-|-2-2-3p2p0-|-2h3h5/7\5p3-2h3-|-2h3-2h3-2-0-|-------------
B-------------|-----------|-----------------|-------------|-------------
G-------------|-----------|-----------------|-------------|-------------
D-------------|-----------|-----------------|-------------|-------------
A-------------|-----------|-----------------|-------------|-------------
E-------------|-----------|-----------------|-------------|-------------
   
E-------------|-----------|-----3h4p3-------|-3h4p3-----0-|-------------
B---4-4-6p4---|-4-4-6p4---|-4h6-------6-4h6-|-------6-4---|-------------
G-----------7-|---------7-|-----------------|-------------|-------------
D-------------|-----------|-----------------|-------------|-------------
A-------------|-----------|-----------------|-------------|-------------
E-------------|-----------|-----------------|-------------|-------------

These are the chords played under the above riff:

E---2--|-----|--2--|-----|----------------------------------------------
B---3--|--3--|--3--|--4--|----------------------------------------------
G---4--|--4--|--4--|--5--|----------------------------------------------
D---4--|--5--|--4--|--6--|----------------------------------------------
A------|--5--|-----|--6--|----------------------------------------------
E------|-----|-----|-----|----------------------------------------------

Then the heavy part starts (play twice):

E---------------------------------------------------|-------------------
B---------------------------------------------------|-------------------
G---------------------------------------------------|-------------------
D------2--2--2--2--2--2--2-----2--2--2--2--2--2--2--|-------------------
A---2--2--2--2--3--2--0--2--2--2--2--2--3--2--0--2--|-------------------
E---0-----------------------0-----------------------|-------------------
 
E---------------------------------------------------|-------------------
B---------------------------------------------------|-------------------
G---------------------------------------------------|-------------------
D---------------------------------------------------|-------------------
A---5--5--5--5--5--5--5--5--2--2--2--2--2--2--2--2--|-------------------
E---3--3--3--3--3--3--5--3--0--0--0--0--0--0--0--0--|-------------------
 
E---------------------------------------------------|-------------------
B---------------------------------------------------|-------------------
G---------------------------------------------------|-------------------
D------2--2--2--2--2--2--2-----2--2--2--2--2--2--2--|-------------------
A---2--2--2--2--3--2--0--2--2--2--2--2--3--2--0--2--|-------------------
E---0-----------------------0-----------------------|-------------------
 
E---------------------------------------------------|-------------------
B---------------------------------------------------|-------------------
G---------------------------------------------------|-------------------
D---------------------------------------------------|-------------------
A---6--6--6--6--6--6--6--6--3--3--3--3--3--3--3--3--|-------------------
E---4--4--4--4--4--4--6--4--1--1--1--1--1--1--1--1--|-------------------

Then the verse riff starts (play twice):

E---------------------------------------------------|-------------------
B---------------------------------------------------|-------------------
G---------------------------------------------------|-------------------
D---------------2-----------------------2-----------|-------------------
A---------------2-----------------------2-----------|-------------------
E---0--0--0--0--0-----0--0--0--0--0--0--0-----0--0--|-------------------
  
E---------------------------------------------------|-------------------
B---------------------------------------------------|-------------------
G---5--5--5--5--5-----5--5--2--2--2--2--2-----2--2--|-------------------
D---5--5--5--5--5-----5--5--2--2--2--2--2-----2--2--|-------------------
A---3--3--3--3--3-----3--3--0--0--0--0--0-----0--0--|-------------------
E---------------------------------------------------|-------------------
 
E---------------------------------------------------|-------------------
B---------------------------------------------------|-------------------
G---------------------------------------------------|-------------------
D---------------2-----------------------2-----------|-------------------
A---------------2-----------------------2-----------|-------------------
E---0--0--0--0--0-----0--0--0--0--0--0--0-----0--0--|-------------------
    
E---------------------------------------------------|-------------------
B---------------------------------------------------|-------------------
G---7--7--7--7--7-----7--7--4--4--4--4--4-----4--4--|-------------------
D---7--7--7--7--7-----7--7--4--4--4--4--4-----4--4--|-------------------
A---5--5--5--5--5-----5--5--2--2--2--2--2-----2--2--|-------------------
E---------------------------------------------------|-------------------

Then one guitar plays the riff at the beginning of the heavy part twice,
while the second guitar plays this (twice):

E-----7-7-7-8-7-5-7---7-7-7-8-7-5-7-|-3-3-3h5p3-----|-------------------
B---5---------------5---------------|-----------5-3-|-------------------
G-----------------------------------|---------------|-------------------
D-----------------------------------|---------------|-------------------
A-----------------------------------|---------------|-------------------
E-----------------------------------|---------------|-------------------
 
E-----7-7-7-8-7-5-7---7-7-7-8-7-5-7-|-4-4-4h6p4------|------------------
B---5---------------5---------------|-----------6~~~-|------------------
G-----------------------------------|----------------|------------------
D-----------------------------------|----------------|------------------
A-----------------------------------|----------------|------------------
E-----------------------------------|----------------|------------------

Then play the verse riff again twice. Now the rhythm guitar plays this:

E---||---------------------------------------------------|--------------
B---||---------------------------------------------------|--------------
G---||*--------------9-----------------------9-----------|--------------
D---||*--------------9-----------------------9-----------|--------------
A---||---7--7--7--7--7-----7--7--7--7--7--7--7-----7--7--|--------------
E---||---------------------------------------------------|--------------
 
E---------------------------------------------------|-------------------
B---------------------------------------------------|-------------------
G---------------5-----------------------2-----------|-------------------
D---------------5-----------------------2-----------|-------------------
A---3--3--3--3--3-----3--3--0--0--0--0--0-----0--0--|-------------------
E---------------------------------------------------|-------------------
  
E---------------------------------------------------|-------------------
B---------------------------------------------------|-------------------
G---------------9-----------------------9-----------|-------------------
D---------------9-----------------------9-----------|-------------------
A---7--7--7--7--7-----7--7--7--7--7--7--7-----7--7--|-------------------
E---------------------------------------------------|-------------------
 
E----------------------------------------------------||-----------------
B----------------------------------------------------||-----------------
G---------------7-----------------------4-----------*||-----------------
D---------------7-----------------------4-----------*||-----------------
A---5--5--5--5--5-----5--5--2--2--2--2--2-----2--2---||-----------------
E----------------------------------------------------||-----------------

E---||---------------------------------------------------|--------------
B---||---------------------------------------------------|--------------
G---||*--------------7-----------------------7-----------|--------------
D---||*--------------7-----------------------7-----------|--------------
A---||---5--5--5--5--5-----5--5--5--5--5--5--5-----5--5--|--------------
E---||---------------------------------------------------|--------------
 
E----------------------------------------------------||-----------------
B----------------------------------------------------||-----------------
G---------------3-----------------------------------*||-----------------
D---------------3-----------------------5-----------*||-----------------
A---1--1--1--1--1-----1--1--------------5------------||-----------------
E---------------------------3--3--3--3--3-----3--3---||-----------------

The lead guitar plays this overtop of the above part:

                                                     8x                 
E---||---------------0h1p0-----------------0-----0---||-----------------
B---||---0--0--0--1---------3--0--0--0--1-----3------||-----------------
G---||*---------------------------------------------*||-----------------
D---||*---------------------------------------------*||-----------------
A---||-----------------------------------------------||-----------------
E---||-----------------------------------------------||-----------------

                                                     4x                 
E---||-----------------------------------------------||-----------------
B---||------------1--3h4p3--1-----------1--3--1--3---||-----------------
G---||*--2--2--2---------------2--2--2--------------*||-----------------
D---||*---------------------------------------------*||-----------------
A---||-----------------------------------------------||-----------------
E---||-----------------------------------------------||-----------------

E------|-----|-----|-----|----------------------------------------------
B------|-----|-----|-----|----------------------------------------------
G---7--|--7--|-----|-----|----------------------------------------------
D---7--|--7--|--7--|--7--|----------------------------------------------
A---5--|--5--|--7--|--7--|----------------------------------------------
E------|-----|--5--|--5--|----------------------------------------------

After both guitars play that twice, one guitar plays it once more while
the other guitar plays this:

E---||---------------------------------------------------|--------------
B---||---------------------------------------------------|--------------
G---||*--2--------2--------2-----4--------4--------4-----|--------------
D---||*--0--0--0--0--0--0--0--0--0--0--0--0--0--0--0--0--|--------------
A---||---------------------------------------------------|--------------
E---||---------------------------------------------------|--------------
 
E---------------------------------------------------||------------------
B---------------------------------------------------||------------------
G---5--------5--------5-----4-----4-----4h5--4-----*||------------------
D---0--0--0--0--0--0--0--0--0--0--0--0--0----0--0--*||------------------
A---------------------------------------------------||------------------
E---------------------------------------------------||------------------
 
E---||---------------------------------------------------|--------------
B---||---------------------------------------------------|--------------
G---||*--------------------------------------------------|--------------
D---||*--2--------2--------2-----4--------4--------4-----|--------------
A---||---0--0--0--0--0--0--0--0--0--0--0--0--0--0--0--0--|--------------
E---||---------------------------------------------------|--------------

E---------------------------------------------------||------------------
B---------------------------------------------------||------------------
G--------------------------------------------------*||------------------
D---5--------5--------5-----4-----4-----4h5--4-----*||------------------
A---0--0--0--0--0--0--0--0--0--0--0--0--0----0--0---||------------------
E---------------------------------------------------||------------------

Then both guitars play this:

                            4x                                          
E---||------|---------------||------------------------------------------
B---||------|---------------||------------------------------------------
G---||*--7--|--------------*||------------------------------------------
D---||*--7--|--8--5--5--5--*||------------------------------------------
A---||---5--|--8--5--5--5---||------------------------------------------
E---||------|--6--3--3--3---||------------------------------------------

Then the rhythm guitar plays this:

E---||----------|---------|---------|----------||-||----------|---------
B---||----------|---------|---------|----------||-||----------|---------
G---||*-9-------|-9-------|-9-------|---------*||-||*-4-------|---------
D---||*-9-------|-9-------|-9-------|---------*||-||*-4-------|---------
A---||--7-------|-7-------|-7-------|----------||-||--2-------|---------
E---||----------|---------|---------|----------||-||----------|---------
 
E-----------|---------|----------||-||------------------|---------------
B-----------|---------|----------||-||------------------|---------------
G---4-------|-4-------|---------*||-||*-9---9-9-9---9-9-|---------------
D---4-------|-4-------|---------*||-||*-9---9-9-9---9-9-|---------------
A---2-------|-2-------|----------||-||--7---7-7-7---7-7-|---------------
E-----------|---------|----------||-||------------------|---------------

E------------------------||-||------------------|-----------------------
B------------------------||-||------------------|-----------------------
G---9---9-9-9-9-9-9-9-9-*||-||*-4---4-4-4---4-4-|-----------------------
D---9---9-9-9-9-9-9-9-9-*||-||*-4---4-4-4---4-4-|-----------------------
A---7---7-7-7-7-7-7-7-7--||-||--2---2-2-2---2-2-|-----------------------
E------------------------||-||------------------|-----------------------
 
E------------------------||---------------------------------------------
B------------------------||---------------------------------------------
G---4---4-4-4-4-4-4-4-4-*||---------------------------------------------
D---4---4-4-4-4-4-4-4-4-*||---------------------------------------------
A---2---2-2-2-2-2-2-2-2--||---------------------------------------------
E------------------------||---------------------------------------------

The lead guitar plays this overtop of the above part (twice):

E---||-----------------------------------------------|------------------
B---||-----------------------------------------------|------------------
G---||*-----5--4h5p4-----4--------5--4h5p4-----4-----|------------------
D---||*---------------7-----5---------------7-----5--|------------------
A---||---7---------------------7---------------------|------------------
E---||-----------------------------------------------|------------------
 
E--------------------------------------------||-------------------------
B--------------------------------------------||-------------------------
G------5--4h5p4-----4-----4-----------------*||-------------------------
D----------------7-----5-----5--7--5--4-----*||-------------------------
A---7------------------------------------5---||-------------------------
E--------------------------------------------||-------------------------
 
E---||-----------------------------------------------|------------------
B---||-----------------------------------------------|------------------
G---||*-----5--4h5p4-----4--------5--4h5p4-----4-----|------------------
D---||*---------------7-----5---------------7-----5--|------------------
A---||-----------------------------------------------|------------------
E---||---7---------------------7---------------------|------------------
 
E--------------------------------------------||-------------------------
B--------------------------------------------||-------------------------
G------5--4h5p4-----4-----------------------*||-------------------------
D----------------7-----5--------------4--5--*||-------------------------
A----------------------------4--5--7---------||-------------------------
E---7---------------------7------------------||-------------------------

Then the rhythm guitar starts playing this (this is also the rhythm part
for the solos):

E-------------------|-----------------|-----------------|---------------
B-------------------|-----------------|-----------------|---------------
G-------9-------9---|-----9-------9---|-----9-------9---|---------------
D-------9-------9---|-----9-------9---|-----9-------9---|---------------
A---7-7-7---7-7-7---|-7-7-7---7-7-7---|-7-7-7---7-7-7---|---------------
E-------------------|-----------------|-----------------|---------------

E-------------------|-----------------|-----------------|---------------
B-------------------|-----------------|-----------------|---------------
G-------9-------9---|-----7-------7---|-----7-------7---|---------------
D-------9-------9---|-----7-------7---|-----7-------7---|---------------
A---7-7-7---7-7-7---|-5-5-5---5-5-5---|-5-5-5---5-5-5---|---------------
E-------------------|-----------------|-----------------|---------------
 
E-------------------|-----------------|---------------------------------
B-------------------|-----------------|---------------------------------
G-------7-------7---|-----7-------7---|---------------------------------
D-------7-------7---|-----7-------7---|---------------------------------
A---5-5-5---5-5-5---|-5-5-5---5-5-5---|---------------------------------
E-------------------|-----------------|---------------------------------

The lead guitar plays this overtop of the above part:

E---------------|-------------|-------------|-------------|-------------
B---------------|-------------|-------------|-------------|-------------
G---4-4-4h5p4---|-4-4-4h5p4---|-4-4-4h5p4---|-4-4-4h5p4-2-|-------------
D-------------7-|-----------7-|-----------7-|-------------|-------------
A---------------|-------------|-------------|-------------|-------------
E---------------|-------------|-------------|-------------|-------------

E---------------|-------------|-------------|-------------|-------------
B---------------|-------------|-------------|-------------|-------------
G---2-2-2h4p2---|-2-2-2h4p2---|-2-2-2h4p2---|-2-2-2h4p2-2-|-------------
D-------------5-|-----------5-|-----------5-|-------------|-------------
A---------------|-------------|-------------|-------------|-------------
E---------------|-------------|-------------|-------------|-------------
 
E---------------|-------------|-------------------------|---------------
B---------------|-------------|-------------------------|---------------
G---4-4-4h5p4---|-4-4-4h5p4---|-4-5-4h5p4---4-5-4h5p4---|---------------
D-------------7-|-----------7-|-----------7-----------7-|---------------
A---------------|-------------|-------------------------|---------------
E---------------|-------------|-------------------------|---------------

E---------------------------|-------------|-------------|---------------
B---------------------------|-------------|-------------|---------------
G---4-5-4h5p4---4-5-4h5p4\2-|-2-2-2h4p2---|-2-2-2h4p2---|---------------
D-------------7-------------|-----------5-|-----------5-|---------------
A---------------------------|-------------|-------------|---------------
E---------------------------|-------------|-------------|---------------
 
E---------------------------|-------------------------|-----------------
B---------------------------|-------------------------|-----------------
G---2-4-2h4p2---2-4-2h4p2---|-2-4-2h4p2---2-4-2h4p2---|-----------------
D-------------5-----------5-|-----------5-----------5-|-----------------
A---------------------------|-------------------------|-----------------
E---------------------------|-------------------------|-----------------

Now one guitar plays the solo rhythm twice, while the other guitar plays 
the solo. Then they switch. See the bottom of this tab for the solos.
After the solos there is a harmony interlude (one guitar plays the top 
notes, the other plays the bottom notes):

E---||------10--12--10--|--8---10--------|-----10--12--10--|------------
B---||---8--12--13--12--|--10--12--8--7--|--8--12--13--12--|------------
G---||*--9--------------|-------------7--|--9--------------|------------
D---||*-----------------|----------9-----|-----------------|------------
A---||------------------|----------------|-----------------|------------
E---||------------------|----------------|-----------------|------------
 
E---8---10--------|-----8---10--8---|--6--8---------|-------------------
B---10--12--8--7--|--6--10--11--10--|--8--10--6--5--|-------------------
G--------------7--|--7--------------|------------5--|-------------------
D-----------9-----|-----------------|---------7-----|-------------------
A-----------------|-----------------|---------------|-------------------
E-----------------|-----------------|---------------|-------------------

E------8---10--8---|--6--8---------|------12--14--12--|-----------------
B---6--10--11--10--|--8--10--6--5--|--10--14--15--14--|-----------------
G---7--------------|------------5--|--11--------------|-----------------
D------------------|---------7-----|------------------|-----------------
A------------------|---------------|------------------|-----------------
E------------------|---------------|------------------|-----------------
  
E---10--12---------|------12--14--12--|--10--12----------||-------------
B---12--14--10--9--|--10--14--15--14--|--12--14--10--9---||-------------
G---------------9--|--11--------------|--------------9--*||-------------
D-----------11-----|------------------|----------11-----*||-------------
A------------------|------------------|------------------||-------------
E------------------|------------------|------------------||-------------
 
E------10--12--10--|--8---10--------|-----10--12--10--|-----------------
B---8--12--13--12--|--10--12--8--7--|--8--12--13--12--|-----------------
G---9--------------|-------------7--|--9--------------|-----------------
D------------------|----------9-----|-----------------|-----------------
A------------------|----------------|-----------------|-----------------
E------------------|----------------|-----------------|-----------------
 
E---8---10--------|-----------------------------------------------------
B---10--12--8--7--|-----------------------------------------------------
G--------------7--|-----------------------------------------------------
D-----------9-----|-----------------------------------------------------
A-----------------|-----------------------------------------------------
E-----------------|-----------------------------------------------------

Then it slows down and plays basically the same thing again:

E------10--12--10--|--8---10--------|-----10--12--10--|-----------------
B---8--12--13--12--|--10--12--8--7--|--8--12--13--12--|-----------------
G---9--------------|-------------7--|--9--------------|-----------------
D------------------|----------9-----|-----------------|-----------------
A------------------|----------------|-----------------|-----------------
E------------------|----------------|-----------------|-----------------
 
E---8---10--------|-----8---10--8---|--6--8---------|-------------------
B---10--12--8--7--|--6--10--11--10--|--8--10--6--5--|-------------------
G--------------7--|--7--------------|------------5--|-------------------
D-----------9-----|-----------------|---------7-----|-------------------
A-----------------|-----------------|---------------|-------------------
E-----------------|-----------------|---------------|-------------------
 
E------8---10--8---|--6--8---------|------12--14--12--|-----------------
B---6--10--11--10--|--8--10--6--5--|--10--14--15--14--|-----------------
G---7--------------|------------5--|--11--------------|-----------------
D------------------|---------7-----|------------------|-----------------
A------------------|---------------|------------------|-----------------
E------------------|---------------|------------------|-----------------
 
E---10--12---------|------12--14--12--|--10--12---------|---------------
B---12--14--10--9--|--10--14--15--14--|--12--14--10--9--|---------------
G---------------9--|--11--------------|--------------9--|---------------
D-----------11-----|------------------|----------11-----|---------------
A------------------|------------------|-----------------|---------------
E------------------|------------------|-----------------|---------------
 
E------9---11--9---|--7--9---------|-----9---11--9---|------------------
B---7--11--12--11--|--9--11--7--6--|--7--11--12--11--|------------------
G---8--------------|------------6--|--8--------------|------------------
D------------------|---------8-----|-----------------|------------------
A------------------|---------------|-----------------|------------------
E------------------|---------------|-----------------|------------------

E---7--9---------|-----10--12--10--|--8---10--------|-------------------
B---9--11--7--6--|--8--12--13--12--|--10--12--8--7--|-------------------
G-------------6--|--9--------------|-------------7--|-------------------
D----------8-----|-----------------|----------9-----|-------------------
A----------------|-----------------|----------------|-------------------
E----------------|-----------------|----------------|-------------------
 
E------10--12--10--|--8---10--------|-----------------------------------
B---8--12--13--12--|--10--12--8--7--|-----------------------------------
G---9--------------|-------------7--|-----------------------------------
D------------------|----------9-----|-----------------------------------
A------------------|----------------|-----------------------------------
E------------------|----------------|-----------------------------------

After that it goes right back to the beginning riff and plays that once.

Here's the solos:

First solo:
                                                                        
E------------------|------12h15p12--|-----------------------------------
B---15^--(15)--12--|--15------------|-----------------------------------
G------------------|----------------|-----------------------------------
D------------------|----------------|-----------------------------------
A------------------|----------------|-----------------------------------
E------------------|----------------|-----------------------------------

E---12------12-------12--------------------|---------------------|------
B-------15------15^------15p12--15p12------|-------10h12--10/12--|------
G--------------------------------------14--|--14^----------------|------
D------------------------------------------|---------------------|------
A------------------------------------------|---------------------|------
E------------------------------------------|---------------------|------
 
E---12h15--12--------------------------------------------------|--------
B--------------15--15^--15p12-------12--15p12--15p12-------12--|--------
G------------------------------14^--------------------14^------|--------
D--------------------------------------------------------------|--------
A--------------------------------------------------------------|--------
E--------------------------------------------------------------|--------
 
E--------------------------------------|--------------------------------
B---------------------14-^-------------|--------------------------------
G---14p12--14p12--12--14^---12--14~~~--|--------------------------------
D--------------------------------------|--------------------------------
A--------------------------------------|--------------------------------
E--------------------------------------|--------------------------------
 
E----------------------------------|------------------------------------
B---0h1p0h1p0h1p0h1/3h5p3h5p3h5p3--|------------------------------------
G----------------------------------|------------------------------------
D----------------------------------|------------------------------------
A----------------------------------|------------------------------------
E----------------------------------|------------------------------------

E-----------------------------------------7--8--10--|-------------------
B---5h6p5h6p5h6--7h8p7h8p7h8p7--7--8--10------------|-------------------
G---------------------------------------------------|-------------------
D---------------------------------------------------|-------------------
A---------------------------------------------------|-------------------
E---------------------------------------------------|-------------------
 
E---12-------14--|--15--14h15p14--|-------------------------------------
B-------15^------|----------------|-------------------------------------
G----------------|----------------|-------------------------------------
D----------------|----------------|-------------------------------------
A----------------|----------------|-------------------------------------
E----------------|----------------|-------------------------------------
 
E---14h15p14--14h15p14--14h15p14--14h15p14--|--17^----------------|-----
B-------------------------------------------|--------------14h16--|-----
G-------------------------------------------|-------14h16---------|-----
D-------------------------------------------|---------------------|-----
A-------------------------------------------|---------------------|-----
E-------------------------------------------|---------------------|-----
 
E-----------------------------------------------------------------------
B---16h17p16p14--16h17p16p14--16h17p16p14--16h17p16h17p16p14--16h17-----
G-----------------------------------------------------------------------
D-----------------------------------------------------------------------
A-----------------------------------------------------------------------
E-----------------------------------------------------------------------
 
E------------------------|----------------------------------------------
B---p16h17p16p14--16p12--|----------------------------------------------
G------------------------|----------------------------------------------
D------------------------|----------------------------------------------
A------------------------|----------------------------------------------
E------------------------|----------------------------------------------
 
                       
Second solo:                                                


E-----------------------------------------------------------|-----------
B---7p5p0--8p5p0--7p5p0--8p5p0--7p5p0--8p5p0--7p5p0--8p5p0--|-----------
G-----------------------------------------------------------|-----------
D-----------------------------------------------------------|-----------
A-----------------------------------------------------------|-----------
E-----------------------------------------------------------|-----------

E-------------------------------------------------|-----------|---------
B---12p10p0--10p8p0--8p7p0--7p5p0--5p3p0----------|-----------|---------
G-----------------------------------------5p4-----|-----------|---------
D----------------------------------------------5--|--------0--|---------
A-------------------------------------------------|--7~~~-----|---------
E-------------------------------------------------|-----------|---------

E-------------------------------------|---------------------------------
B-------------------------------------|---------------------------------
G-------------------------------------|---------------------------------
D---(0)--4p0--4p0--4--0--5p0--5p0--5--|---------------------------------
A-------------------------------------|---------------------------------
E-------------------------------------|---------------------------------
 
E-----------------------------------|------------------------|----------
B-----------------------------------|------------------------|----------
G-----------------------------------|------------------------|----------
D---0--7p0--7p0--7--0--8p0--8p0--8--|--0--7p0--7p0--7--5--4--|----------
A-----------------------------------|------------------------|----------
E-----------------------------------|------------------------|----------
 
E-----------------|----------|------------|------------|----------------
B-----------------|--5---7---|--8----10---|--12---13---|----------------
G-----------------|--7^--9^--|--10^--12^--|--14^--15^--|----------------
D---(4)--5--4-----|----------|------------|------------|----------------
A--------------5--|----------|------------|------------|----------------
E-----------------|----------|------------|------------|----------------
 
E-------------|-------------------------------------------|-------------
B---15---17---|-------17--20p17-------17--20p17-------17--|-------------
G---17^--19^--|--19^-------------19^-------------19^------|-------------
D-------------|-------------------------------------------|-------------
A-------------|-------------------------------------------|-------------
E-------------|-------------------------------------------|-------------
 
E-----------------------------------------------|-----------------------
B---20p17-------17--20p17-------17--20p17-------|-----------------------
G----------19^-------------19^-------------19^--|-----------------------
D-----------------------------------------------|-----------------------
A-----------------------------------------------|-----------------------
E-----------------------------------------------|-----------------------

E-----------------------------------------------17--19--20--|-----------
B---17--20p17-------17--20p17-------17--19--20--------------|-----------
G--------------19^-------------19^--------------------------|-----------
D-----------------------------------------------------------|-----------
A-----------------------------------------------------------|-----------
E-----------------------------------------------------------|-----------
  
E---20^--|--------------------------------------------------------------
B--------|--------------------------------------------------------------
G--------|--------------------------------------------------------------
D--------|--------------------------------------------------------------
A--------|--------------------------------------------------------------
E--------|--------------------------------------------------------------





Comments


Popular Iron Maiden tabs & chords
Assasin Bass Tabs
Invaders 2 Bass Tabs
Quest For Fire Bass Tabs
Aces High (Solo) Tabs
Back In The Village Intro Tabs
Fortunes Of War Intro Tabs
Montsegur Tabs
Run To The Hils Tabs
Stranger In A Strange Land Tabs
Journeyman Ukulele


Song lyrics



↑ Back to top | Tablatures and chords are parodies/interpretations of the original songs. You may use it for private study, scholarship, research or language learning purposes only
© 2014 AZChords.com Contact us | Privacy policy | DMCA | Add/correct tabs | Request tabs | Top 50 tabs