>
 >
The Trooper 2

The Trooper 2 Guitar Tabs

Iron Maiden - The Trooper 2 chords, tabs, tablatures, lyrics

Guitar lessons | Add/correct | Request | Top 50 tabs Artists:  A B C D E F G H I J K L M N O P Q R S T U V W X Y Z 0-9

The Trooper 2 Guitar Tabs – Iron Maiden

CD, Sheet music, Poster

Do you like The Trooper 2? Share with your friends now
TabsTabs v2Tabs v3Tabs v4Tabs v5
this song rules and so do maiden

**************************************************
!!!!!!!!!!!!!!!!!!!UP THE IRONS!!!!!!!!!!!!!!!!!!!
**************************************************


|---------------------------------------------------------|
|---------------------------------------------------------|
|---------------------------------------------------------|
|------------------------------------------------5--------|
|--(7)--7--7p5-----5--5--5p3-----3--3--3p2-----5---5--7---|
|--------------7-------------5-------------3--------------|

|---------------------------------------------------------|
|---------------------------------------------------------|
|---------------------------------------------------------|
|--(5)--5--5-4-----4--4--4-2-0---2--2--2-0-----4-5-4--5---|
|--------------7---------------------------3--------------|
|---------------------------------------------------------|

MAIN RIFF:

Guitar I (Dave)
|------------------7----------------------------------------|
|--8--7h8p7h8p7h8-----8--7h8p7h8p7h8--8-----------8---------|
|----------------------------------------9--9~--7---7--9~---|
|-----------------------------------------------------------|
|-----------------------------------------------------------|
|-----------------------------------------------------------|

Guitar II (Adrian)
|-----------------------------------------------------------|
|-----------------------------------------------------------|
|--------------------7--------------------------------------|
|--9--7h9p7h9p7h9-----9--7h9p7h9p7h9--9---------------------|
|---------------------------------------10-10~--9-10-9-10~--|
|-----------------------------------------------------------|

|-----------------------------------------------------------------|
|-----------------------------------------------------------------|
|-----------------------------------------------------------------|
|---9-------7--5--7---9---9-------7--5--7---5---5-------7--5--7---|
|---7-------5--5--5---7---7-------5--5--5---3---3-------5--5--5---|
|---0---------------------0--------------------(0)----------------|

|------------12--------12--------------------------|
|--15b(17)---15b(17)---15b(17)--r15--12---15~~~----|
|--------------------------------------------------|
|--------------------------------------------------|
|--------------------------------------------------|
|--------------------------------------------------|

           B5                                   C5        D5
|------15b(17)~-----15--12-----------------------------------|
|--12--------------------------------------------------------|
|---------------------------15--14--12-----------------------|
|---------------------------------------14b(16)-r14--12------|
|--------------------------------------------------------14--|
|------------------------------------------------------------|

        E5                                              D5
|----------------------------------------------------------------|
|--------------12-h15-----------12-h15----------12-h15-----------|
|--14---b(16)----------14b(16)----------14b(16)---------14b(16)--|
|----------------------------------------------------------------|
|----------------------------------------------------------------|
|----------------------------------------------------------------|


|-----------------------------------------------------------------|
|--12-h15----------12-h15----------12-h15----------12-h15---------|
|----------14b(16)---------14b(16)---------14b(16)--------14b(16)-|
|-----------------------------------------------------------------|
|-----------------------------------------------------------------|
|-----------------------------------------------------------------|

   B5
|---------------------------------------------------------|
|--12-h15----------12-h15----------12-h15---------12-h15--|
|----------14b(16)---------14b(16)--------14b(16)---------|
|---------------------------------------------------------|
|---------------------------------------------------------|
|---------------------------------------------------------|

                     C5          D5      E5
|-----------------------------------------15--19p15-h17p15------|
|-------------------------------------/17-------------------17--|
|--14----15--14--12--14--14--12~\-------------------------------|
|---------------------------------------------------------------|
|---------------------------------------------------------------|
|---------------------------------------------------------------|

                                    D5
|---15--19p15-h17p15-----15--19p15-h17p15----15--19p15-h17p15--|
|---------------------17------------------17-------------------|
|--------------------------------------------------------------|
|--------------------------------------------------------------|
|--------------------------------------------------------------|
|--------------------------------------------------------------|

                              B5
|-----15--19p15-h17p15----15--19p15-h17p15------15--19p15-h17p15--|
|--17------------------17-------------------17--------------------|
|-----------------------------------------------------------------|
|-----------------------------------------------------------------|
|-----------------------------------------------------------------|
|-----------------------------------------------------------------|
                                               D5
                     C5   *With harmony(see end )
|-------20b(22)--20b(22)--20b(22)--20b(22)r20--20b(22)r20--|
|---14-----------------------------------------------------|
|----------------------------------------------------------|
|----------------------------------------------------------|
|----------------------------------------------------------|
|----------------------------------------------------------|
                                                  D5
                     E5                         Harmony ends *
|--20b(22)r20--20b(22)-----19--20--17--19-----17----------------|
|------------------------------------------20-----19h20--17~~\--|
|---------------------------------------------------------------|
|---------------------------------------------------------------|
|---------------------------------------------------------------|
|---------------------------------------------------------------|

   B5                                  C5                  D5
|----------12----------12-----------------------------------------|
|------12------15b(17)-----15--12---------------------------------|
|--/14-----------------------------14b(16)r14--12--14--12---------|
|-----------------------------------------------------------------|
|----------------------------------------------------------14~~---|
|-----------------------------------------------------------------|


Solo 2: Dave Murray
  (D5)   A5                                  G5
|--------5h8p5h8p5h8p5h8p5----------------------------------|
|--5h8----------------------8p5h8p5h8p5h8p5-----------------|
|--------------------------------------------7b(9)-(9)r(8)--|
|-----------------------------------------------------------|
|-----------------------------------------------------------|
|-----------------------------------------------------------|

|----------------------------------------------------|
|-----------------------------------------------5h7--|
|--7--6--5-----6--5----------------------------------|
|-----------7--------7-------------------------------|
|-----------------------6--5-------------------------|
|-----------------------------8--5~~-----------------|
   
|--------------5h7p5h7p5h7----------------5h7p5h7p5/7--8p7h8p7--|
|--5h7p5h7p5-----------------5h7p5h7p6h8------------------------|
|---------------------------------------------------------------|
|---------------------------------------------------------------|
|---------------------------------------------------------------|
|---------------------------------------------------------------|
             
|----7---10b(12)--10b(12)--10b(12)--(12)r10--8--10~~--8\--|
|--10-----------------------------------------------------|
|---------------------------------------------------------|
|---------------------------------------------------------|
|---------------------------------------------------------|
|---------------------------------------------------------|

|-----12-----------12--15--12--15--12--12-----------12------|
|-/15-----15b(17)--------------------------15b(17)------15--|
|-----------------------------------------------------------|
|-----------------------------------------------------------|
|-----------------------------------------------------------|
|-----------------------------------------------------------|

|---------------------------------10h12p10------------------------|
|--13--12--13--12--12---------/10-----------10--13b(15)-HOLD BEND-|
|-----------------------------------------------------------------|
|-----------------------------------------------------------------|
|-----------------------------------------------------------------|
|-----------------------------------------------------------------|
                
|-----------------------------------------|
|--(15)\5/---NH---T-bar-------------------|
|------------12--\-(9)-/-----17b(19)~~~\--|
|-----------------------------------------|
|-----------------------------------------|
|-----------------------------------------|
                  
|--------------------------------------------------20b(22)-(22)r20-|
|-----------------------------20b(22)--(22)r20--17-----------------|
|--/17--19b(21)--(21)r19--17---------------------------------------|
|------------------------------------------------------------------|
|------------------------------------------------------------------|
|------------------------------------------------------------------|

|--17-------------------20b(22)--20--19--17-----------------------|
|-----20b(22)-------17----------------------20b(22)---------------|
|---------------------------------------------------20b(23)-r(21)-|
|-----------------------------------------------------------------|
|-----------------------------------------------------------------|
|-----------------------------------------------------------------|

|--------------------------|
|--17\15-------------------|
|---------17--17--14--14\--|
|--------------------------|
|--------------------------|
|--------------------------|


enjoy!! 

*&KnÚcKlÉ$&*


please rate an chek ut my other tab the kid's aren't alrightt(the extra t was a typo on the name)

(....\              /....) 
 \....\            /..../
  \....\          /..../
   \..../´¯.|.¯`\./
   /... |....|.... (¯ `\ 
  |.....|´¯.|´¯.| \....\
  \......` ¯..¯ ´......·
   \_ ............ _.·´ 
 ROCK ON!!!!!!





Comments


Popular Iron Maiden tabs & chords
Can I Play With Madness Bass Tabs
Deja Vu 2 Bass Tabs
The Nomad Bass Tabs
Drifter Drum Tabs
Blood Brothers 1 Tabs
Dream Of Mirrors 2 Tabs
Judas Be My Guide Tabs
Out Of The Shadows Intro Tabs
Out Of The Silent Planet 1 Tabs
Two Am Tabs


Song lyrics



↑ Back to top | Tablatures and chords are parodies/interpretations of the original songs. You may use it for private study, scholarship, research or language learning purposes only
© 2014 AZChords.com Contact us | Privacy policy | DMCA | Add/correct tabs | Request tabs | Top 50 tabs