>
 >
The Nomad

The Nomad Bass Tabs

Iron Maiden - The Nomad chords, tabs, tablatures, lyrics

Guitar lessons | Add/correct | Request | Top 50 tabs Artists:  A B C D E F G H I J K L M N O P Q R S T U V W X Y Z 0-9

The Nomad Bass Tabs – Iron Maiden

CD, Sheet music, Poster

Do you like The Nomad? Share with your friends now
Bass TabsTabsTabs v2
Standard tuning

G|--------9--9-9---------9--7-7---------9--9-9---------9--4---| 
D|--------9--9-9---------9--7-7---------9--9-9---------9--4-7-| 
A|7-7-7-7-7--7-7-7-7-7-7-7--5-5-7-7-7-7-7--7-7-7-7-7-7-7--2-7-| 
E|----------------------------------------------------------5-| 




G|--------9--9-9---------9--7-7---------9--9-9---------9---R-| 
D|--------9--9-9---------9--7-7---------9--9-9---------9---E-| 
A|7-7-7-7-7--7-7-7-7-7-7-7--5-5-7-7-7-7-7--7-7-7-7-7-7-7---S-| 
E|---------------------------------------------------------T-|




G|--------9--9-9---------9--7-7---------9--9-9---------9--4---| 
D|--------9--9-9---------9--7-7---------9--9-9---------9--4-7-| 
A|7-7-7-7-7--7-7-7-7-7-7-7--5-5-7-7-7-7-7--7-7-7-7-7-7-7--2-7-| 
E|----------------------------------------------------------5-|





G|--------9--9-9---------9--7-7---------9--9-9---------9--4---| 
D|--------9--9-9---------9--7-7---------9--9-9---------9--4-7-| 
A|7-7-7-7-7--7-7-7-7-7-7-7--5-5-7-7-7-7-7--7-7-7-7-7-7-7--2-7-| 
E|----------------------------------------------------------5-|
 




G|--------4--4-4-----4---|---|-5-|
D|--------4--4-4-----4-7-|-7-|-5-|
A|----2-2-2--2-2-2-2-2-7-|-7-|-3-| 
E|---------------------5-|-5-|---|




G|--------9--9-9---------9--7-7---------9--9-9---------9--4---| 
D|--------9--9-9---------9--7-7---------9--9-9---------9--4-7-| 
A|7-7-7-7-7--7-7-7-7-7-7-7--5-5-7-7-7-7-7--7-7-7-7-7-7-7--2-7-| 
E|----------------------------------------------------------5-|



G|--9---4-5-4--9----|
D|--9---4-5-4--9----|
A|--7---2-3-2--7----|
E|------------------|



G|--9---4-5-4--9----|
D|--9---4-5-4--9----|
A|--7---2-3-2--7----|
E|------------------|



G|--------9--9-9---------9--7-7---------9--9-9---------9--4---| 
D|--------9--9-9---------9--7-7---------9--9-9---------9--4-7-| 
A|7-7-7-7-7--7-7-7-7-7-7-7--5-5-7-7-7-7-7--7-7-7-7-7-7-7--2-7-| 
E|----------------------------------------------------------5-|




G|--------9--9-9---------9--7-7---------9--9-9---------9--4---| 
D|--------9--9-9---------9--7-7---------9--9-9---------9--4-7-| 
A|7-7-7-7-7--7-7-7-7-7-7-7--5-5-7-7-7-7-7--7-7-7-7-7-7-7--2-7-| 
E|----------------------------------------------------------5-|




G|-4------------4-------7--|
D|-4-----4--7---4----4--7--| 
A|-2-----4--7---2----4--5--|
E|-------2--5--------2-----|




G|-4------------4-------7--|
D|-4-----4--7---4----4--7--| 
A|-2-----4--7---2----4--5--|
E|-------2--5--------2-----|




G|--------9--9-9---------9--7-7---------9--9-9---------9--4---| 
D|--------9--9-9---------9--7-7---------9--9-9---------9--4-7-| 
A|7-7-7-7-7--7-7-7-7-7-7-7--5-5-7-7-7-7-7--7-7-7-7-7-7-7--2-7-| 
E|----------------------------------------------------------5-|




G|--------9--9-9---------9--7-7---------9--9-9---------9--4---| 
D|--------9--9-9---------9--7-7---------9--9-9---------9--4-7-| 
A|7-7-7-7-7--7-7-7-7-7-7-7--5-5-7-7-7-7-7--7-7-7-7-7-7-7--2-7-| 
E|----------------------------------------------------------5-|
 



G|-4------------4-------7--|
D|-4-----4--7---4----4--7--| 
A|-2-----4--7---2----4--5--|
E|-------2--5--------2-----|



G|-4------------4-------7--|
D|-4-----4--7---4----4--7--| 
A|-2-----4--7---2----4--5--|
E|-------2--5--------2-----|



G|--------9--9-9---------9--7-7---------9--9-9---------9--4---| 
D|--------9--9-9---------9--7-7---------9--9-9---------9--4-7-| 
A|7-7-7-7-7--7-7-7-7-7-7-7--5-5-7-7-7-7-7--7-7-7-7-7-7-7--2-7-| 
E|----------------------------------------------------------5-|




G|--------9--9-9---------9--7-7---------9--9-9---------9--4---| 
D|--------9--9-9---------9--7-7---------9--9-9---------9--4-7-| 
A|7-7-7-7-7--7-7-7-7-7-7-7--5-5-7-7-7-7-7--7-7-7-7-7-7-7--2-7-| 
E|----------------------------------------------------------5-|




G|-4------------4-------7--|
D|-4-----4--7---4----4--7--| 
A|-2-----4--7---2----4--5--|
E|-------2--5--------2-----|




G|-4------------4-------7--|
D|-4-----4--7---4----4--7--| 
A|-2-----4--7---2----4--5--|
E|-------2--5--------2-----|




G|-9-9-9--4-5-7-7-7----------|
D|-9-9-9--4-5-7-7-7--457754--|
A|-7-7-7--2-3-5-5-5----------| 
E|---------------------------|




G|-9-9-9--4-5-7-7-7----------|
D|-9-9-9--4-5-7-7-7--457754--|
A|-7-7-7--2-3-5-5-5----------| 
E|---------------------------|





G|-9-9-9--4-5-7-7-7----------|
D|-9-9-9--4-5-7-7-7--457754--|
A|-7-7-7--2-3-5-5-5----------| 
E|---------------------------|




G|-9-9-9--4-5-7-7-7----------|
D|-9-9-9--4-5-7-7-7--457754--|
A|-7-7-7--2-3-5-5-5----------| 
E|---------------------------|




G|--------9--9-9---------9--7-7---------9--9-9---------9--4---| 
D|--------9--9-9---------9--7-7---------9--9-9---------9--4-7-| 
A|7-7-7-7-7--7-7-7-7-7-7-7--5-5-7-7-7-7-7--7-7-7-7-7-7-7--2-7-| 
E|----------------------------------------------------------5-|





G|--------9--9-9---------9--7-7---------9--9-9---------9--4---| 
D|--------9--9-9---------9--7-7---------9--9-9---------9--4-7-| 
A|7-7-7-7-7--7-7-7-7-7-7-7--5-5-7-7-7-7-7--7-7-7-7-7-7-7--2-7-| 
E|----------------------------------------------------------5-|





G|--9---4-5-4--9----|
D|--9---4-5-4--9----|
A|--7---2-3-2--7----|
E|------------------|





G|--9---4-5-4--9----|
D|--9---4-5-4--9----|
A|--7---2-3-2--7----|
E|------------------|




G|--------9--9-9---------9--7-7---------9--9-9---------9--4---| 
D|--------9--9-9---------9--7-7---------9--9-9---------9--4-7-| 
A|7-7-7-7-7--7-7-7-7-7-7-7--5-5-7-7-7-7-7--7-7-7-7-7-7-7--2-7-| 
E|----------------------------------------------------------5-|





G|--------9--9-9---------9--7-7---------9--9-9---------9--9-9-| 
D|--------9--9-9---------9--7-7---------9--9-9---------9--9-9-| 
A|7-7-7-7-7--7-7-7-7-7-7-7--5-5-7-7-7-7-7--7-7-7-7-7-7-7--7-7-| 
E|------------------------------------------------------------|




G|--------9--9-9---------9--7-7---------9--9-9---------9--4---| 
D|--------9--9-9---------9--7-7---------9--9-9---------9--4-7-| 
A|7-7-7-7-7--7-7-7-7-7-7-7--5-5-7-7-7-7-7--7-7-7-7-7-7-7--2-7-| 
E|----------------------------------------------------------5-|		




G|--------9--9-9---------9--7-7---------9--9-9---------9--4---| 
D|--------9--9-9---------9--7-7---------9--9-9---------9--4-7-| 
A|7-7-7-7-7--7-7-7-7-7-7-7--5-5-7-7-7-7-7--7-7-7-7-7-7-7--2-7-| 
E|----------------------------------------------------------5-|




G|-4------------4-------7--|
D|-4-----4--7---4----4--7--| 
A|-2-----4--7---2----4--5--|
E|-------2--5--------2-----|




G|-4------------4-------7--|
D|-4-----4--7---4----4--7--| 
A|-2-----4--7---2----4--5--|
E|-------2--5--------2-----|




G|-9-9-9--4-5-7-7-7----------|
D|-9-9-9--4-5-7-7-7--457754--|
A|-7-7-7--2-3-5-5-5----------| 
E|---------------------------|




G|-9-9-9--4-5-7-7-7----------|
D|-9-9-9--4-5-7-7-7--457754--|
A|-7-7-7--2-3-5-5-5----------| 
E|---------------------------|





G|-9-9-9--4-5-7-7-7----------|
D|-9-9-9--4-5-7-7-7--457754--|
A|-7-7-7--2-3-5-5-5----------| 
E|---------------------------|




G|-9-9-9--4-5-7-7-7----------|
D|-9-9-9--4-5-7-7-7--457754--|
A|-7-7-7--2-3-5-5-5----------| 
E|--------------------------0|
	

 

G|----4-4-4-----4-4-4--------------------------------------------4-4-4-----4-4-4--| 
D|-2-2-2-2-2-2-2-2-2-2---5-5-5-----5-5-5----------------------2-2-2-2-2-2-2-2-2-2-| 
A|--------------------3-3-3-3-3-3-3-3-3-3----7-7-7-----7-7-7----------------------| 
E|----------------------------------------5-5-5-5-5-5-5-5-5-5---------------------| 



 
G|----4-4-4-----4-4-4--------------------------------------------4-4-4-----4-4-4--| 
D|-2-2-2-2-2-2-2-2-2-2---5-5-5-----5-5-5----------------------2-2-2-2-2-2-2-2-2-2-| 
A|--------------------3-3-3-3-3-3-3-3-3-3----7-7-7-----7-7-7----------------------| 
E|----------------------------------------5-5-5-5-5-5-5-5-5-5---------------------| 





G|----4-4-4-----4-4-4--------------------------------------------4-4-4-----4-4-4--| 
D|-2-2-2-2-2-2-2-2-2-2---5-5-5-----5-5-5----------------------2-2-2-2-2-2-2-2-2-2-| 
A|--------------------3-3-3-3-3-3-3-3-3-3----7-7-7-----7-7-7----------------------| 
E|----------------------------------------5-5-5-5-5-5-5-5-5-5---------------------| 







G|----4-4-4-----4-4-4--------------------------------------------4-4-4-----4-4-4--| 
D|-2-2-2-2-2-2-2-2-2-2---5-5-5-----5-5-5----------------------2-2-2-2-2-2-2-2-2-2-| 
A|--------------------3-3-3-3-3-3-3-3-3-3----7-7-7-----7-7-7----------------------| 
E|----------------------------------------5-5-5-5-5-5-5-5-5-5---------------------| 






                                                                              x4
G|------------------------------------------------------------------------------
D|-2-222-2-222-2-222-2-222-------------------------------------------------2-222 
A|-------------------------3-333-3-333-3-333-3-333------------------------------ 
E|-------------------------------------------------5-555-5-555-5-555-5-555------  



                                                                              x4
G|------------------------------------------------------------------------------
D|-2-222-2-222-2-222-2-222-------------------------------------------------2-222
A|-------------------------3-333-3-333-3-333-3-333------------------------------ 
E|-------------------------------------------------5-555-5-555-5-555-5-555------  





G|-----------------------------------------------------------------------------
D|-2-222-2-222-2-222-2-222-------------------------------------------------2-222 
A|-------------------------3-333-3-333-3-333-3-333------------------------------ 
E|-------------------------------------------------5-555-5-555-5-555-5-555------




G|------------------------------------------------------------------------------
D|-2-222-2-222-2-222-2-222-------------------------------------------------2-222
A|-------------------------3-333-3-333-3-333-3-333------------------------------ 
E|-------------------------------------------------5-555-5-555-5-555-5-555------ 





G|------------------------------------------------------------------------------
D|-2-222-2-222-2-222-2-222-------------------------------------------------2-222
A|-------------------------3-333-3-333-3-333-3-333------------------------------
E|-------------------------------------------------5-555-5-555-5-555-5-555------ 




G|------------------------------------------------------------------------------
D|-2-222-2-222-2-222-2-222-------------------------------------------------2-222 
A|-------------------------3-333-3-333-3-333-3-333------------------------------
E|-------------------------------------------------5-555-5-555-5-555-5-555------




G|------------------------------------------------------------------------------
D|-2-222-2-222-2-222-2-222-------------------------------------------------2-222
A|-------------------------3-333-3-333-3-333-3-333------------------------------
E|-------------------------------------------------5-555-5-555-5-555-5-555------



G|------------------------------------------------------------------------------
D|-2-222-2-222-2-222-2-222-------------------------------------------------2-222
A|-------------------------3-333-3-333-3-333-3-333------------------------------ 
E|-------------------------------------------------5-555-5-555-5-555-5-555------ 



G|------------------------------------------------------------------------------
D|-2-222-2-222-2-222-2-222-------------------------------------------------2-222
A|-------------------------3-333-3-333-3-333-3-333------------------------------ 
E|-------------------------------------------------5-555-5-555-5-555-5-555------




G|-4------------4-------7--|
D|-4-----4--7---4----4--7--| 
A|-2-----4--7---2----4--5--|
E|-------2--5--------2-----|





G|-4------------4-------7--|
D|-4-----4--7---4----4--7--| 
A|-2-----4--7---2----4--5--|
E|-------2--5--------2-----|





G|-9-9-9--4-5-7-7-7----------|
D|-9-9-9--4-5-7-7-7--457754--|
A|-7-7-7--2-3-5-5-5----------| 
E|---------------------------|




G|-9-9-9--4-5-7-7-7----------|
D|-9-9-9--4-5-7-7-7--457754--|
A|-7-7-7--2-3-5-5-5----------| 
E|---------------------------|




G|-9-9-9--4-5-7-7-7----------|
D|-9-9-9--4-5-7-7-7--457754--|
A|-7-7-7--2-3-5-5-5----------| 
E|---------------------------|




G|-9-9-9--4-5-7-7-7----------|
D|-9-9-9--4-5-7-7-7--457754--|
A|-7-7-7--2-3-5-5-5----------| 
E|---------------------------|




G|--------9--9-9---------9--7-7---------9--9-9---------9--4---| 
D|--------9--9-9---------9--7-7---------9--9-9---------9--4-7-| 
A|7-7-7-7-7--7-7-7-7-7-7-7--5-5-7-7-7-7-7--7-7-7-7-7-7-7--2-7-| 
E|----------------------------------------------------------5-|		




G|--------9--9-9---------9--7-7---------9--9-9---------9--4----|| 
D|--------9--9-9---------9--7-7---------9--9-9---------9--4-7--|| 
A|7-7-7-7-7--7-7-7-7-7-7-7--5-5-7-7-7-7-7--7-7-7-7-7-7-7--2-7--|| 
E|----------------------------------------------------------5-0||





Comments


Popular Iron Maiden tabs & chords
Afraid To Shoot Strangers 2 Bass Tabs
Charlotte The Harlot Bass Tabs
Deja Vu Bass Tabs
Flight Of Icarus 2 Bass Tabs
Gangland Bass Tabs
Blood Brothers 3 Tabs
Prowler Riff Tabs
Sun And Steel 1 Tabs
Wildest Dreams Tabs
Aces High Ukulele


Song lyrics



↑ Back to top | Tablatures and chords are parodies/interpretations of the original songs. You may use it for private study, scholarship, research or language learning purposes only
© 2014 AZChords.com Contact us | Privacy policy | DMCA | Add/correct tabs | Request tabs | Top 50 tabs