>
 >
The Loneliness Of The Long Distance Runn 1

The Loneliness Of The Long Distance Runn 1 Bass Tabs

Iron Maiden - The Loneliness Of The Long Distance Runn 1 chords, tabs, tablatures, lyrics

Guitar lessons | Add/correct | Request | Top 50 tabs Artists:  A B C D E F G H I J K L M N O P Q R S T U V W X Y Z 0-9

The Loneliness Of The Long Distance Runn 1 Bass Tabs – Iron Maiden

CD, Sheet music, Poster

Do you like The Loneliness Of The Long Distance Runn 1? Share with your friends now
Bass TabsBass Tabs v2
Intro
 G-|--9--9--9--9----5--5--5--5----7--7--7--7-----9--9----7--7--|-----|------
 D-|-----------------------------------------------------------|-X 2-|------
 A-|-7--7--7--7--7\3--3--3--3--3/5--5--5--5---5/7--7--7\5--5---|-----|------
 E-|-----------------------------------------------------------|-----|------

    (First time at 0:12)
 G-|-----12---12---12---12-----8--8--8--8-----10--10--10--10-----12---12-----10--10-|---|---
 D-|--------------------------------------------------------------------------------|-X2|---
 A-|-5/10---10---10---10---10\6--6--6--6--6/8---8---8---8---8/10---10----10\8---8---|---|---
 E-|--------------------------------------------------------------------------------|---|---

    (First time at 0:25)
 G-|--9--9--9--9----5--5--5--5----7--7--7--7-----9--9----7--7--|-----|------
 D-|-----------------------------------------------------------|-X 2-|------
 A-|-7--7--7--7--7\3--3--3--3--3/5--5--5--5---5/7--7--7\5--5---|-----|------
 E-|-----------------------------------------------------------|-----|------

    (First time at 0:37)
 G-|-----12---12---12---12-----8--8--8--8-----10--10--10--10-----12---12-----10--10-|---|---
 D-|--------------------------------------------------------------------------------|-X2|---
 A-|-5/10---10---10---10---10\6--6--6--6--6/8---8---8---8---8/10---10----10\8---8---|---|---
 E-|--------------------------------------------------------------------------------|---|---

  Enter lyrics at 0:49 "The tough of the track...
 G--------------------------------------------------------------------------
 D---------------------------------------8-7-5------------------------------
 A-5-555-555-555 7-5-555-555 8-5-555-555-------8-7-8-7-5-555-555-555 7------
 E--------------------------------------------------------------------------

                                            (1:01)"is ringing in your head...
 G----------------------------------------------------------------------------------
 D-------------8-7-5--------------5-7-8-7-5---------------------9-------------------
 A-5-555-555 8-------8-7-8--5-7-8-----------7-777-777-777-7 9-7---8 7-777-777-777---
 E----------------------------------------------------------------------------------

                                                              (1:11)...makes, you run...
 G----------------------------------------------------------------------------------
 D-------9-----------------------11------------------------11-----------------------
 A-7 9-7--8 9-999-999-999-9 11-9---10 9-999-999-999-9 11-9---10-5-555-555-555 7-----
 E----------------------------------------------------------------------------------

                        (1:15)
 G------------------------------------------------------------------------
 D-----------------------8-7-5--------------------------------------------
 A-5-555-555 8-5-555-555-------8-7-8-7-5-555-555-555 7-5-555-555 8--------
 E------------------------------------------------------------------------

  (1:20)"your mind is getting...                                         (1:26)
 G----------------------------------------------------------------------------------
 D-8-7-5--------------5-7-8-7-5---------------------9-----------------------9-------
 A-------8-7-8--5-7-8-----------7-777-777-777-7 9-7---8 7-777-777-777-7 9-7---8 9---
 E----------------------------------------------------------------------------------

                                                     (1:33)Chorus:"Run on and on...
 G----------------------------------------------------------------------------------
 D--------------------11------------------------11----------------------------------
 A-999-999-999-9 11-9---10 9-999-999-999-9 11-9---10-5555555555555-1111111111111----
 E----------------------------------------------------------------------------------

                               (1:43)"The loneliness of the long...  
 G-------------------------------------------------------------------------------------
 D-------------------------------------------------------------------------------------
 A-3333333333333---------------5555555555555-1111111111111-3333333333333-5555555555555-
 E---------------1111111111111---------------------------------------------------------

  (1:54)             (1:59)
 G-------------------------------------------------------------------------
 D-------------------------------------------------------------------------
 A-5-555555555555555-3-333333333333333-5-555555555555555-3-333333333333333-
 E-------------------------------------------------------------------------

  (2:14)                          (2:19)
 G-------------------------------------------------------------------------
 D-------------------------------------------------------------------------
 A-11111-11111-1111 1-3-555555555-11111-11111-1111 1-555555555-------------
 E-------------------------------------------------------------------------

    (2:24),(2:45)
 G-|---------------------------------------------------------------|-----|--
 D-|---------------------------------------------------------------|-X 2-|--
 A-|-77777777777777-33333333333333-55555555555555---------33333333-|-----|--
 E-|---------------------------------------------5555555-----------|-----|--

  (3:05)"I've got to running...
 G----------------------------------------------------------------------------------
 D----------------------------------------------------------------------------------
 A-777777777-333333333-555555555--------333333-777777777-333333333------------------
 E-------------------------------555555----------------------------555555555--------

                   (3:25)Gitar Solo                    (3:30)
 G----------------|-------------------------------------------------------------------|---|-
 D----------------|5 555555----------------------------5 555555-----------------------|X 2|-
 A-333333-5555555-|---------5 555555-7 777777-3 333333----------5 555555-3 3333333333-|---|-
 E----------------|-------------------------------------------------------------------|---|-

    
    (3:46)                      (3:51)                             (4:07)
 G-|--------------------------------------------------------|----|-----------7777-999------
 D-|7777777-3333333-------------7777777-3333333-44444444444-|-X 2|-444444444----------\9---
 A-|----------------55555555555-----------------------------|----|-------------------------
 E-|--------------------------------------------------------|----|-------------------------

  Lyrics at (4:09)
 G------------------------------------------------------------------------
 D---------------------------------------8-7-5----------------------------
 A-5-555-555-555 7-5-555-555 8-5-555-555-------8-7-8-7-5-555-555-555 7----
 E------------------------------------------------------------------------

              (4:18)"The line is getting...               (4:21)"you reach the final...
 G----------------------------------------------------------------------------------------
 D-------------8-7-5--------------5-7-8-7-5---------------------9-------------------------
 A-5-555-555 8-------8-7-8--5-7-8-----------7-777-777-777-7 9-7---8 7-777-777-777---------
 E----------------------------------------------------------------------------------------

                         (4:26)"You fell like...                 Chorus X2(4:31,4:51) 
 G--------------------------------------------------------------|-----------------------------
 D-------9-----------------------11------------------------11---|-----------------------------
 A-7 9-7--8 9-999-999-999-9 11-9---10 9-999-999-999-9 11-9---10-|-5555555555555-1111111111111-
 E--------------------------------------------------------------|-----------------------------

                              (4:41,5:02)
 G------------------------------------------------------------------------------------|----|--
 D------------------------------------------------------------------------------------|-X 2|--
 A-3333333333333---------------5555555555555-1111111111111-3333333333333-5555555555555|----|--
 E---------------1111111111111--------------------------------------------------------|----|--
  
  Outro(5:12)
 G----------------------------------------------------------------------------------
 D----------------------------------------------------------------------------------
 A-77777777-33333333-55555555-7777-5555-77777777-33333333-55555555-7777-5555--------
 E----------------------------------------------------------------------------------

  (5:23)
 G----------------------------------------------------------------------------------
 D-55555555-11111111-33333333-5555-3333-55555555-11111111-33333333-5555-3333--------
 A----------------------------------------------------------------------------------
 E----------------------------------------------------------------------------------

    (5:33)                                      (6:09)                     (6:17)
 G-|-------------------------------------|----|----------------------------9---9----
 D-|-------------------------------------|-X 7|-------------------.---.------9------
 A-|-77777777-33333333-55555555-7777-5555|----|-77777777-33333333-5-r-7-------------
 E-|-------------------------------------|----|-------------------------0-----------

   (6:18)
 G-999999999999----------------
 D-----------------------------
 A--------------777------------
 E------------------000--------


 Dedicada a todos los fans de Iron Maiden en la Republica Dominicana
 y en todo el mundo.





Comments


Popular Iron Maiden tabs & chords
Afraid To Shoot Strangers Bass Tabs
Drifter Bass Tabs
Out Of The Silent Planet 2 Bass Tabs
Bring Your Daughter To The Slaughter Drum Tabs
Aces High 1 Tabs
Journeyman Live Tabs
No More Lies 3 Tabs
Seventh Son Of A Seventh Son Tabs
The Clansman 1 Tabs
When Two Worlds Collide Tabs


Song lyrics



↑ Back to top | Tablatures and chords are parodies/interpretations of the original songs. You may use it for private study, scholarship, research or language learning purposes only
© 2014 AZChords.com Contact us | Privacy policy | DMCA | Add/correct tabs | Request tabs | Top 50 tabs