» » »

Iron Maiden, The Evil That Men Do Bass tabs (ver.1)

Artists:  A B C D E F G H I J K L M N O P Q R S T U V W X Y Z # 

The Evil That Men Do Bass tabs (ver.1)

Iron Maiden Tabs
 Rating:
4/5 (4 votes)
The Evil That Men Do  lessons Tabs too difficult? Try these video lessons and learn fast
1
                (2)
The Evil That Men Do-Iron Maiden
           From the album Seventh Son of a Seventh Son

Intro-strummed
G|------------------------------|
D|-9--7--5--7--9---5-7-9--7--5--|
A|-7--5--3--5--7---3-5-7--5--3--|
E|------------------------------|

Verse   (0:30 twice) , (1:56)
G|----------------------------------------------------|
D|----------------------------------------------------|
A|-7--7-7-7--7-7-7--7-7-7--7-7-7--7-7-7--7-7-7--7-7-7-|
E|----------------------------------------------------|

G|-----------------------------------|
D|-----------------------------------|
A|-3--3-3-3--3-3-3--3-3-3--3-2--3-2--|
E|-----------------------------3----3|

G|----------------------------------------------------|
D|----------------------------------------------------|
A|-7--7-7-7--7-7-7--7-7-7--7-7-7--7-7-7--7-7-7--7-7-7-|
E|----------------------------------------------------|

G|--------------------------------------|
D|--------------------------------------|
A|-3--3-3-3--3-3-3--3-3-3--3-2----3-2---|
E|------------------------------3-----3-|

Bridge A  (0:54) , (2:08)
G|--------------------------------------------------------|
D|--------------------------------------------------------|
A|-7--7-7-7--7-7-7--7-7-7--7-7-7--3--3-3-3--3-3-3--3-3-3--|
E|--------------------------------------------------------|

G|--------------------------------------------------------|
D|--------------------------------------------------------|
A|--------------------------------------------------------|
E|-3--3-3-3--3-3-3--3-3-3--5--5-5-5--5-5-5--5-5-5---------|

G|--------------------------------------------------------|
D|--------------------------------------------------------|
A|-7--7-7-7--7-7-7--7-7-7--7-7-7--3--3-3-3--3-3-3--3-3-3--|
E|--------------------------------------------------------|

G|--------------------------------------------------------|
D|--------------------------------------------------------|
A|--------------------------------------------------------|
E|-3--3-3-3--3-3-3--3-3-3--5--5-5-5--5-5-5--5-5-5---------|

Bridge  (1:06) , (2:20)
G|------------------------9-7-5-4-2-0---|
D|------------------------------------3-|
A|-7--7-7-7--7-7-7--7-7-7---------------|
E|--------------------------------------|

Pre-chorus  (1:08 twice) , (2:23) , (3:40)
G|---------------------------------------------|
D|---------------------------------------------|
A|-3--3-3-3--3-3-3--3-3-3--3-3-3--3-3-3--3-3-3-|
E|---------------------------------------------|

G|------------------------------------------------------|
D|------------------------------------------------------|
A|-5--7--7-7-7--7-7-7--7-7-7--7-7-7--7-7-7--7-7-7--7-7-7|
E|------------------------------------------------------|

G|-------------------------------------------------------|
D|-------------------------------------------------------|
A|-5--5-5-5--5-5-5--5-5-5--5-5-5--5-5-5--3--3-3-3--3-3-3-|
E|-------------------------------------------------------|

G|-------------------------------|
D|-------------------------------|
A|-3-3-3--5--5-5-5--5-5-5--5-5-5-|
E|-------------------------------|

Chorus (1:33) , (2:25) , (3:52)
G|----------------------------------------------------|
D|----------------------------------------------------|
A|-7--7-7-7--7-7-7--7-7-7--7-7-7--7-7-7--7-7-7--7-7-7-|
E|----------------------------------------------------|

G|------------------------------------------------|
D|------------------------------------------------|
A|-3--3-3-3--3-3-3--3-3-3--5--5-5-5--5-5-5--5-5-5-|
E|------------------------------------------------|

G|----------------------------------------------------|
D|----------------------------------------------------|
A|-7--7-7-7--7-7-7--7-7-7--7-7-7--7-7-7--7-7-7--7-7-7-|
E|----------------------------------------------------|

G|----------------------------------------------------|
D|----------------------------------------------------|
A|-3--3-3-3--3-3-3--3-3-3--0--0-0-0--0-0-0--0-0-0-----|
E|----------------------------------------------------|
(Twice)

Link  (2:59)
G|-----------9-9-9-7-7-7------------------------------------------|
D|-----------------------9-9--------------------------------------|
A|-7---7--7------------------7--7-7-7--7-7-7--7-7-7--7-7-7--7-7-7-|
E|----------------------------------------------------------------|

G|------------------------------------------------|
D|------------------------------------------------|
A|-3--3-3-3--3-3-3--3-3-3--5--5-5-5--5-5-5--5-5-5-|
E|------------------------------------------------|

G|--------------------------------------------------------------|
D|--------------------------------------------------------------|
A|-7--7-7-7--7-7-7--7-7-7--7-7-7--7-7-7--3--3-3-3--3-3-3--3-3-3-|
E|--------------------------------------------------------------|

G|------------------------|
D|------------------------|
A|-0--0-0-0--0-0-0--0-0-0-|
E|------------------------|

Solo (3:16)
G|--------------------------------------------------------------|
D|--------------------------------------------------------------|
A|-9--9-9-9--9-9-9--9-9-9--9-9-9--9-9-9--5--5-5-5--5-5-5--5-5-5-|
E|--------------------------------------------------------------|

G|------------------------|
D|------------------------|
A|-7--7-7-7--7-7-7--7-7-7-|
E|------------------------|

G|--------------------------------------------------------------|
D|--------------------------------------------------------------|
A|-9--9-9-9--9-9-9--9-9-9--9-9-9--9-9-9--5--5-5-5--5-5-5--5-5-5-|
E|--------------------------------------------------------------|

G|------------------------|
D|------------------------|
A|-2--2-2-2--2-2-2--2-2-2-|
E|------------------------|
(Twice)

Outro (4:25)
G|------------------------------------------------------------------|
D|------------------------------------------------------------------|
A|-7--7-7-7-7-7-7--7--7-7-7-7-7-7-7--3--3-3-3-3-3-3--5--5-5-5-5-5-5-|
E|------------------------------------------------------------------|

G|------------------------------------------------------------------|
D|------------------------------------------------------------------|
A|-7--7-7-7-7-7-7--7--7-7-7-7-7-7-7--3--3-3-3-3-3-3--0--0-0-0-0-0-0-|
E|------------------------------------------------------------------|`

Hats off to Mr. Harris once again.
            
Submit corrections

comments powered by Disqus
↑ Back to top | Iron Maiden Bass for The Evil That Men Do. Lyrics for acoustic guitar and electric guitar. 1 Tablatures and chords are parodies/interpretations of the original songs. You may use it for private study, scholarship, research or language learning purposes only