>
 >
The Duellists

The Duellists Bass Tabs

Iron Maiden - The Duellists chords, tabs, tablatures, lyrics

Guitar lessons | Add/correct | Request | Top 50 tabs Artists:  A B C D E F G H I J K L M N O P Q R S T U V W X Y Z 0-9

The Duellists Bass Tabs – Iron Maiden

CD, Sheet music, Poster

Do you like The Duellists? Share with your friends now
Bass Tabs
Intro
 G------------------------------------------------------------------------------------
 D------------------------------------------------------------------------------------
 A-r-77777777777777777-3-3-3-55555555555555555-5-5-5-77777777777777777-3-3-3----------
 E------------------------------------------------------------------------------------

                           (0:12)
 G------------------------------------------------------------------------------------
 D--------------------------55555555555555555-1-1-1-44444444444444444-4-4-4-----------
 A-55555555555555555-5-5-5------------------------------------------------------------
 E------------------------------------------------------------------------------------
        
                                                    (0:24)Verse1 (0:27)
 G-------------------------------------------------|----------------------------------
 D-55555555555555555-1-1-1-44444444444444444-------|------------555-444---------------
 A-------------------------------------------5-5-5-|77777777777---------33333333333---
 E-------------------------------------------------|----------------------------------

        (0:30)                                                (0:36)"He'll tear you...
 G------------------------------------------------------------------------------------
 D-------555-444-------------555-444-------------------555-444-0-5554-0-5554-0-555----
 A-55555---------77777777777---------33333333333-55555--------------------------------
 E------------------------------------------------------------------------------------

  (0:39)                             (0:43) Chorus:"OH..OH.. Fight for the ... 
 G----------------------------------|---------------------999-777---------------------
 D-555-444-------------------555-444|-7777777777777-99999---------7777777777777-99999-
 A---------33333333333-55555--------|-------------------------------------------------
 E----------------------------------|-------------------------------------------------

  (0:48)                                                  (0:54)
 G-999-777---------------------999-777---------------------999-777----------------------
 D---------5555555555555-77777---------5555555555555-77777---------7777777777777-99999--
 A--------------------------------------------------------------------------------------
 E--------------------------------------------------------------------------------------
 
                                                           (1:03)
 G-999-777---------------------999-777------------------------------------------------
 D---------7777777777777-99999---------5555555555555-77777-4-5-7-5--------------------
 A-----------------------------------------------------------------77777777777--------
 E------------------------------------------------------------------------------------

  (1:07)Verse2 "Ready to start...
 G--------------------------------------------------------------------------------------
 D-------------555-444-------------------555-444-------------555-444--------------------
 A-77777777777---------33333333333-55555---------77777777777----------33333333333-55555-
 E--------------------------------------------------------------------------------------
    
           (1:19)"Seeing the stain...                           (1:25) Chorus 
 G------------------------------------------------------------------------------------
 D-555-444-0-5554-0-5554-0-555-555-444-------------------555-444-7777777777777-99999--
 A-------------------------------------33333333333-55555------------------------------
 E------------------------------------------------------------------------------------

                               (1:30)
 G-999-777---------------------999-777---------------------999-777----------------------
 D---------7777777777777-99999---------5555555555555-77777---------5555555555555-77777--
 A--------------------------------------------------------------------------------------
 E--------------------------------------------------------------------------------------

           (1:37)"OH.. OH
 G-999-777----------------------999-777---------------------999-777-------------------
 D---------7777777777777-99999----------7777777777777-99999---------5555555555555-----
 A------------------------------------------------------------------------------------
 E------------------------------------------------------------------------------------

        (1:45)"Fight for...   (1:50)Interlude              (1:52)
 G--------------------------------9------9------9------9-------7------7------7------7-----
 D-77777-4-5-7-5----------------9--9---9--9---9--9---9--9----7--7---7--7---7--7---7--7----
 A---------------77777777777--7------7------7------7-------5------5------5------5---------
 E----------------------------------------------------------------------------------------
          
  (1:56)          (1:57)        play x8  play x 4  (2:08)
 G-----4------4------5------5--|-----9--|-----7--|-----4------4------5------5---------
 D---4--4---4--4---5--5---5--5-|---9--9-|---7--7-|---4--4---4--4---5--5---5--5--------
 A-2------2------3------3------|-7------|-5------|-2------2------3------3-------------
 E-----------------------------|--------|--------|------------------------------------

  (2:11)                        (2:14)                (2:17)  (2:18)          (2:20)
 G-----9------9------9------9-----------7h99999999999---------45754-----------------------
 D---9--9---9--9---9--9---9--9--.-.-.-.---------------.-.-.-.------5-555-444--.-.-.-.-----
 A-7------7------7------7-------7-7-7-7---------------5-5-5-5-----------------2-2-2-2-----
 E----------------------------------------------------------------------------------------

                         (2:25)
 G-----------------------999999999---
 D-.-.-.-.--.-.-.-.--.-.-------------
 A-3-3-3-3--7-7-7-7--7-7-------------
 E-----------------------------------

     Play this part 4 times(2:26 to 3:13), 3rd time enter guitar solo at(2:50) 
 G----------------------------------------------------------------------------------------------------
 D--------------------------4-44444-44444-44444-4444-5-55555-55557-7777-7-5---------------------------
 A-7-77777-77777-77777-7777-------------------------------------------------7-77777-77777-77777-7777--
 E----------------------------------------------------------------------------------------------------

  (3:14)             (3:16)             (3:18)                                          (3:24)
 G----------------------------------------------------------------------------------------------
 D----------------------------------------------------------------------------------------------
 A-2-22222-22222-2222-----4-2-22222-222-----------2-22222-22222-2222-----4-2-22222-222----------
 E--------------------555---------------3333-5555--------------------555---------------3-3-5-5--

                                         (3:30)
 G-----------------------------------------------------------------------------------------
 D-----------------------------------------------------------------------------------------
 A--2-22222-22222-2222-----4-2-22222-222-.-.-.-.-.-.-2-22222-22222-2222-----4-2-22222-222--
 E---------------------555---------------3-3-3-5-5-5--------------------555----------------

              (3:38)         (3:40)                      (3:43)
 G-----------------------------------------------------------------------------------------
 D------------9999-9999-9999-121212121212-9999-9999-9999-7777-9999-9999-9999-121212121212--
 A-----------------------------------------------------------------------------------------
 E-3333-5555-------------------------------------------------------------------------------

                  (3:49)                           (3:52) 
 G------------------------------------------------------------------------------------
 D-9999-9999-9999-7777-7777-7777-7777-121212121212-9999-9999-9999-121212121212--------
 A------------------------------------------------------------------------------------
 E------------------------------------------------------------------------------------

                                             (4:01)
 G------------------------------------------------------------------------------------
 D-9999-9999-9999-121212121212-9999-9999-9999-7777-9999-9999-9999-121212121212--------
 A------------------------------------------------------------------------------------
 E------------------------------------------------------------------------------------

                  (4:07)                                          (4:12)
 G------------------------------------------------------------------------------------
 D-9999-9999-9999-7777-7777-7777-7777-121212121212-9999-9999-9999-121212121212--------
 A------------------------------------------------------------------------------------
 E------------------------------------------------------------------------------------

  (4:13)                   (4:16)            (4:19)
 G-------------------------------------------------------------------------------------------
 D-------------------------------------------------------------------------------------------
 A-7-77777-77777-7777-5-7-5-55555-55555-5555-3-5-7-77777-77777-7777-55-7-5-55555-55555-5555--
 E-------------------------------------------------------------------------------------------

       (4:25)
 G-----------------------------------------------------------------------------------------------
 D-----------------------------------------------------------------------------------------------
 A-3-5-7-77777-77777-7777-5-7-5-55555-55555-5555-3-5-7-77777-77777-7777-55-7-5-55555-55555-5555--
 E-----------------------------------------------------------------------------------------------

       (4:37)                 (4:40)
 G-----------------------------------------------------------
 D-----.-.-.-.----------------.-.-.-.---.-.-.-.---.-.-.-.----
 A-3-5-7-7-7-7-r(only guitar)-3-3-3-3-r-7-7-7-7-r-3-3-3-3----
 E-----------------------------------------------------------

 **Play Intro and Verse again (from 4:50 to 5:30)


  (5:31)Chorus: OH...OH..Fought for the honor
 G---------------------999-777---------------------999-777---------------------999-777--
 D-7777777777777-99999---------7777777777777-99999---------5555555555555-77777----------
 A--------------------------------------------------------------------------------------
 E--------------------------------------------------------------------------------------

                              (5:43) OH.. OH...
 G---------------------999-777---------------------999-777---------------------999-777--
 D-5555555555555-77777---------7777777777777-99999---------7777777777777-99999----------
 A--------------------------------------------------------------------------------------
 E--------------------------------------------------------------------------------------

                       (5:51)"Fought to the Death
 G--------------------------------------------------------------------------------------
 D-5555555555555-77777--4-5-7-5------------------1212121412-----------------------------
 A-------------------------------77777777-------------------141414121212141214-99999----
 E----------------------------------------0000000---------------------------------------

         (6:01)
 G---------------
 D---------.-----
 A-77777-r-7-----
 E---------------


 Dedicada a todos los fans de Iron Maiden en la Republica Dominicana
 y en todo el mundo.





Comments


Popular Iron Maiden tabs & chords
Be Quick Or Be Dead Bass Tabs
Brave New World 3 Bass Tabs
Man On The Edge Bass Tabs
The Number Of The Beast 2 Bass Tabs
Hooks In You Tabs
Im A Mover Tabs
Powerslave 4 Tabs
Stranger In A Stranger Land Tabs
Twighlight Zone 1 Tabs
Fear Of The Dark Ukulele


Song lyrics



↑ Back to top | Tablatures and chords are parodies/interpretations of the original songs. You may use it for private study, scholarship, research or language learning purposes only
© 2014 AZChords.com Contact us | Privacy policy | DMCA | Add/correct tabs | Request tabs | Top 50 tabs