>
 >
The Clansman 2

The Clansman 2 Bass Tabs

Iron Maiden - The Clansman 2 chords, tabs, tablatures, lyrics

Guitar lessons | Add/correct | Request | Top 50 tabs Artists:  A B C D E F G H I J K L M N O P Q R S T U V W X Y Z 0-9

The Clansman 2 Bass Tabs – Iron Maiden

CD, Sheet music, Poster

Do you like The Clansman 2? Share with your friends now
Bass Tabs
[Intro Part 1]
G|---9---9---9---9---7---7---7-----------------------5-------7----
D|-7---7---7---7---5---5---5---5-----7---7---7-----3---3---5---5--
A|---------------------------------5---5---5---5------------------
E|----------------------------------------------------------------

[Intro Part 2]
G|---9---9---9---9---9---9---9---9---7---7---7---7---7---7---7---7
D|-7---7---7---7---7---7---7---7---5---5---5---5---5---5---5---5--
A|----------------------------------------------------------------
E|----------------------------------------------------------------

G|-----------------------------------5---5---5---5---5---5---5---5
D|---7---7---7---7---7---7---7---7-3---3---3---3---3---3---3---3--
A|-5---5---5---5---5---5---5---5----------------------------------
E|----------------------------------------------------------------

G|---7---7---7---7---7---7---7---7--------------------------------
D|-5---5---5---5---5---5---5---5-----7---7---7---7---7---7---7---7
A|---------------------------------5---5---5---5---5---5---5---5--
E|----------------------------------------------------------------

G|-----9-9-9-----9-9-9-----9-9-9-----9-9-9------------------------
D|-7-7-------7-7-------7-7-------7-7------------------------------
A|----------------------------------------------------------------
E|----------------------------------------------------------------

[Intro Part 3]
G|--7-9-9-7-9-9-7-9-9-10-9------7-9-9-7-9-9-7-9-9-10-9
D|-7-7---7-7---7-7---7--7------7-7---7-7---7-7---7--7-
A|----------------------------------------------------
E|----------------------------------------------------

G|--7-7-7-7-7-------------------7-9-9-7-9-9-7-9-9-10-9
D|-5-5---5-5-----7-7-7-7--7----7-7---7-7---7-7---7--7-
A|--------------5-5---5-5-----------------------------
E|----------------------------------------------------             

G|--7-7-7-7-7------------------5-5-5-5-5--------------
D|-5-5---5-5-----7-7-7-7-7----3-3---3-3-----5-5-5-5-5-
A|--------------5-5---5-5------------------3-3---3-3--
E|---------------------------------------------------- 

G|--7-7-7-7-7------------------9-9-9-9-9----9-9-9-9-9-
D|-5-5---5-5-----7-7-7-7-7----7-7---7-7----7-7---7-7--
A|--------------5-5---5-5-----------------------------
E|---------------------------------------------------- 

[Verse A] ('Wake alone on the hills...')                                                                           
G|--9-9-9-9-9-----9-9-9-9-9----9-9-9-9-9----9-9-9-9-9-
D|-7-7---7-7-----7-7---7-7----7-7---7-7----7-7---7-7--
A|----------------------------------------------------
E|----------------------------------------------------

G|--7-7-7-7-7------------------9-9-9-9-9----9-9-9-9-9-
D|-5-5---5-5-----7-7-7-7-7----7-7---7-7----7-7---7-7--
A|--------------5-5---5-5-----------------------------
E|----------------------------------------------------  

G|--7-7-7-7-7------------------5-5-5-5-5--------------
D|-5-5---5-5-----7-7-7-7-7----3-3---3-3-----5-5-5-5-5-
A|--------------5-5---5-5------------------3-3---3-3--
E|---------------------------------------------------- 

G|--7-7-7-7-7------------------9-9-9-9-9----9-9-9-9-9-
D|-5-5---5-5-----7-7-7-7-7----7-7---7-7----7-7---7-7--
A|--------------5-5---5-5-----------------------------
E|----------------------------------------------------

[Chorus] ('Freedom!...')
G|----------------------------------------------------------------
D|----------------------------------------------------------------
A|-7-7-7-7-7-7-7-7-3-3-3-3---------7-7-7-7-7-7-7-7-3-3-3-3--------
E|-------------------------3-3-3-3-------------------------3-3-3-3

G|----------------------------------------------------------------
D|----------------------------------------------------------------
A|-7-7-7-7-7-7-7-7-3-3-3-3---------0-0-0-0-0-0-0-0-3-3-3-3-5-5-5-5
E|-------------------------3-3-3-3--------------------------------

[Verse B] ('Itís a time wrought with fear...')
G|----------------------------------------------------------------
D|----------------------------------------------------------------
A|-7-7-7-7-7-7-7-7-7-7-7-7-7-7-7-7-7-7-7-7-7-7-7-7-7-7-7-7-7-7-7-7
E|----------------------------------------------------------------

G|----------------------------------------------------------------
D|----------------------------------------------------------------
A|-5-5-5-5-5-5-5-5-----------------7-7-7-7-7-7-7-7-7-7-7-7-7-7-7-7
E|-----------------5-5-5-5-5-5-5-5--------------------------------

G|----------------------------------------------------------------
D|----------------------------------------------------------------
A|-5-5-5-5-5-5-5-5-----------------3-3-3-3-3-3-3-3----------------
E|-----------------5-5-5-5-5-5-5-5-----------------3-3-3-3-3-3-3-3

G|----------------------------------------------------------------
D|----------------------------------------------------------------
A|-5-5-5-5-5-5-5-5-----------------7-7-7-7-7-7-7-7-7-7-7-7-7-7-7-7
E|-----------------5-5-5-5-5-5-5-5--------------------------------

[Guitar Duet 1]
G|----------------------------------------------------------------
D|----------------------------------------------------------------
A|-7-7-7-7-7-7-7-7-7-7-7-7-7-7-7-7-3-3-3-3-5-5-5-5-7-7-7-7-7-7-7-7
E|----------------------------------------------------------------

G|----------------------------------------------------------------
D|----------------------------------------------------------------
A|-7-7-7-7-7-7-7-7-7-7-7-7-7-7-7-7-3-3-3-3-5-5-5-5-7-7-7-7-7-7-7-7
E|----------------------------------------------------------------

G|----------------------------------------------------------------
D|----------------------------------------------------------------
A|-3-3-3-3-5-5-5-5-7-7-7-7-7-7-7-7-7-7-7-7-7-7-7-7----------------
E|----------------------------------------------------------------

[Guitar Duet 2]
G|----------------------------------------------------------------
D|-----------------5----------------------------------------------
A|-7-7-7-7-7-7-7-7---------3-------5-5-5-5-5-5-5-5-5-5-5-5-5-5-5-5
E|----------------------------------------------------------------

G|----------------------------------------------------------------
D|-----------------5----------------------------------------------
A|-3-3-3-3-3-3-3-3---------5-------7-7-7-7-7-7-7-7-7-7-7-7-7-7-7-7
E|----------------------------------------------------------------

[Interlude A]					     -\
G|--9-9-9-9-9-----9-9-9-9-9----9-9-9-9-9----9-9-9-9-9- \
D|-7-7---7-7-----7-7---7-7----7-7---7-7----7-7---7-7--  |
A|----------------------------------------------------  |
E|----------------------------------------------------  |
                                                        |- x2
G|--7-7-7-7-7------------------9-9-9-9-9----9-9-9-9-9-  |
D|-5-5---5-5-----7-7-7-7-7----7-7---7-7----7-7---7-7--  |
A|--------------5-5---5-5-----------------------------  |
E|---------------------------------------------------- /
                                                     -/

G|--9-9-9-9-9-----9-9-9-9-9----9-9-9-9-9----9-9-9-9-9-
D|-7-7---7-7-----7-7---7-7----7-7---7-7----7-7---7-7--
A|----------------------------------------------------
E|----------------------------------------------------

G|--7-7-7-7-7------------------5-5-5-5-5----7-7-7-7-7-
D|-5-5---5-5-----7-7-7-7-7----3-3---3-3----5-5--=5-5--
A|--------------5-5---5-5-----------------------------
E|---------------------------------------------------- 

G|--9-9-9-9-9----9-9-9-9-9-
D|-7-7---7-7----7-7---7-7--
A|-------------------------
E|-------------------------

[Interlude B] ('Oh-oh-oh...')
G|----------------------------------------------------------------
D|----------------------------------------------------------------
A|-7-7-7-7-7-7-7-7-7-7-7-7-7-7-7-7-7-7-7-7-7-7-7-7-7-7-7-7-7-7-7-7
E|----------------------------------------------------------------

G|----------------------------------------------------------------
D|----------------------------------------------------------------
A|-5-5-5-5-5-5-5-5-----------------7-7-7-7-7-7-7-7-7-7-7-7-7-7-7-7
E|-----------------5-5-5-5-5-5-5-5--------------------------------

G|----------------------------------------------------------------
D|----------------------------------------------------------------
A|-7-7-7-7-7-7-7-7-7-7-7-7-7-7-7-7-7-7-7-7-7-7-7-7-7-7-7-7-7-7-7-7
E|----------------------------------------------------------------

G|----------------------------------------------------------------
D|----------------------------------------------------------------
A|-5-5-5-5-5-5-5-5-----------------7-7-7-7-7-7-7-7-7-7-7-7-7-7-7-7
E|-----------------5-5-5-5-5-5-5-5--------------------------------

G|----------------------------------------------------------------
D|----------------------------------------------------------------
A|-7-7-7-7-7-7-7-7-7-7-7-7-7-7-7-7-7-7-7-7-7-7-7-7-7-7-7-7-7-7-7-7
E|----------------------------------------------------------------

G|----------------------------------------------------------------
D|----------------------------------------------------------------
A|-5-5-5-5-5-5-5-5-----------------3-3-3-3-3-3-3-3----------------
E|-----------------5-5-5-5-5-5-5-5-----------------3-3-3-3-3-3-3-3

G|--------------------------------
D|--------------------------------
A|-7-7-7-7-7-7-7-7-7-7-7-7-7-7-7-7
E|--------------------------------

[Guitar Duet 3]
G|----------------------------------------------------------------
D|-----------------------5-5-5-5-----------------5-5-5-5----------
A|-7-7-7-7-7-7-7-7-7-7-7---------3-3-3-3-3-3-3-3---------5-5-5-5--
E|----------------------------------------------------------------


Structure:
Intro Part 1	x4
Intro Part 2	x1
Intro Part 3	x1
Verse A		x2
Chorus		x1
Verse B		x2
Chorus		x1
Guitar Duet 1	x2
Guitar Duet 2	x4
Chorus		x1
Intro Part 3	x1
Interlude A	x1
Interlude B	x1
Guitar Duet 3	x4
Chorus		x1
Verse B		x1
Chorus		x1
Intro Part 3	x1





Comments


Popular Iron Maiden tabs & chords
Children Of The Damned 1 Chords
Cross Eyed Mary Intro Tabs
Hallowed Be Thy Name 1 Tabs
Invaders 1 Tabs
Isle Of Avalon Tabs
Lord Of The Flies 1 Tabs
Rainmaker Tabs
The Evil That Men Do Tabs
Where Eagles Dare Tabs
Flight Of Icarus Ukulele


Song lyrics



↑ Back to top | Tablatures and chords are parodies/interpretations of the original songs. You may use it for private study, scholarship, research or language learning purposes only
© 2014 AZChords.com Contact us | Privacy policy | DMCA | Add/correct tabs | Request tabs | Top 50 tabs