>
 >
Run To The Hils

Run To The Hils Guitar Tabs

Iron Maiden - Run To The Hils chords, tabs, tablatures, lyrics

Guitar lessons | Add/correct | Request | Top 50 tabs Artists:  A B C D E F G H I J K L M N O P Q R S T U V W X Y Z 0-9

Run To The Hils Guitar Tabs – Iron Maiden

CD, Sheet music, Poster

Do you like Run To The Hils? Share with your friends now
Tabs
Intro
Gtr I 
|----------------------------------------------------------|
|----------------------------------------------------------|
|-x-9--9---7----x-7--7---9-----x-5--5---7----x-0--0---2----|
|-x-9--9---7----x-7--7---9-----x-5--5---7----x-0--0---2----|
|----------------------------------------------------------|
|----------------------------------------------------------|


Gtr II
|---12--12-----------------12~-------------------------------|
|-----------15~----15--15---------13--13—15~-----------------|
|------------------------------------------------12--12—14~--|
|------------------------------------------------------------|
|------------------------------------------------------------|
|------------------------------------------------------------|

There’s a bit here that’s slow but to make it a bit better I do this
|----------------------------------------------------------|
|----14b--14b—121314121314121314121314/--slide slowly------|
|----------------------------------------------------------|
|----------------------------------------------------------|
|----------------------------------------------------------|
|----------------------------------------------------------|

Verse
|----------------------------------------------------------|
|----------------------------------------------------------|
|----------------------------------------------------------|
|---5-x-x-5-x-x-5-x-x-5-------3-x-x-3-x-x-3-x-x-3----------|repeat as 
|---5-x-x-5-x-x-5-x-x-5-------3-x-x-3-x-x-3-x-x-3----------| needed
|---3-x-x-3-x-x-3-x-x-3-------1-x-x-1-x-x-1-x-x-1----------|
p.m ^     ^     ^             ^     ^     ^

This is a bit you do to join verse with chorus
|-------------------------------------------|
|-------------------------------------------|
|-------------------------------------------|
|---3--2--3--4------------------------------|
|---3--2--3--4------------------------------|
|---1--0--1--2------------------------------|


Chorus
|----------------------------------------------------------|
|----------------------------------------------------------|
|----------------------------------------------------------|
|---7-x-x-7-x-x-7-x-x-7-------5-x-x-5-x-x-5-x-x-5----------|repeat as 
|---7-x-x-7-x-x-7-x-x-7-------5-x-x-5-x-x-5-x-x-5----------| needed
|---5-x-x-5-x-x-5-x-x-5-------3-x-x-3-x-x-3-x-x-3----------|
p.m ^     ^     ^             ^     ^     ^






|----------------------------------------------------------|
|----------------------------------------------------------|
|----------------------------------------------------------|
|--5--5---3---5------5-xx-5--5-xx-5------------------------|
|--5--5---3---5------5-xx-5--5-xx-5------------------------|
|--3--5---1---3------3-xx-3--3-xx-3------------------------|
  run to the hills.  ^       ^ 

|----------------------------------------------------------|
|----------------------------------------------------------|
|----------------------------------------------------------|
|----5---5---3----5b---------5------------------------------|
|----5---5---3----5b---------5---really fast----------------|
|----3---5---1----3b---------3------------------------------|
    run for your lives


rhythm for solo
|----------------------------------------------------------|
|----------------------------------------------------------|
|--2-2-2---4-4-4---5-5-5---7-7-7---------------------------|
|--2-2-2---4-4-4---5-5-5---7-7-7---------------------------|
|----------------------------------------------------------|
|----------------------------------------------------------|


Solo:
E----------------------12h15p12-----12---------12--------------------------
B-15^^-15-15^^v----------------15-----15^^-------15p12h15p12--12----------
G------------------------------------------------------------------------------14^^v---
D---------------------------------------------------------------------
A---------------------------------------------------------------------
E---------------------------------------------------------------------

E--------------------------------------------------------------------------------
B----------------------------------------------------------------12-12h14-12-15p12--
G-14p12h14p12-12----------------------------------12h14p12-12h14--------------
D------------- --14----------12h14p12-----12h14-----------------------------
A-------------------12p14--------------14-----------------------------------------
E--------------------------------------------------------------------------------

E-------------------------------------------------------------------------------
B-15p12-12-12-15\--15h17p15----15h17p15h17----17p15h17p15-15-17-15----15-18^^v--
G------------------ --------16-------------16----------------------16-----------
D-------------------------------------------------------------------------------
A-------------------------------------------------------------------------------
E-------------------------------------------------------------------------------

E-12-15-12----------------------------------------------
B-----------12-15-12----------------------------------
G--------------------14p12h14------------12--14---
D------------------------------14p12h14------------
A-------------------------------------------------------
E-------------------------------------------------------

E----------------------------17-----17------------------------------------
B-15-------------12--------------------15---17------------------15--17--20^^^-
G------------------------------------------------------14----16-----------------
D--------------------------------------------------------------------------------
A--------------------------------------------------------------------------------
E------------------------------------------------------------------------------
I don’t know if this is write but I figured it out as this
Bridge:
|----------------------------------------------------------|
|----------------------------------------------------------|
|----------------------------------------------------------|
|---9-9-9---10-10-10---11-11-11---12-12-12-----------------|
|---9-9-9---10-10-10---11-11-11---12-12-12-----------------|
|---7-7-7---8--8--8----9--9--9----10-10-10-----------------|

thats all people





Comments


Popular Iron Maiden tabs & chords
Bring Your Daughter To The Slaughter 3 Bass Tabs
Charlotte The Harlot 3 Bass Tabs
Fates Warning Bass Tabs
Hooks In You Bass Tabs
All In Your Mind Intro Tabs
Back In The Village Intro Tabs
Blood Brothers 6 Tabs
Drifter 1 Tabs
Lightning Strikes Twice 1 Tabs
Out Of The Shadows Tabs


Song lyrics



↑ Back to top | Tablatures and chords are parodies/interpretations of the original songs. You may use it for private study, scholarship, research or language learning purposes only
© 2014 AZChords.com Contact us | Privacy policy | DMCA | Add/correct tabs | Request tabs | Top 50 tabs