» » »

Revelations Bass tabs (ver.1)

Artists:  A B C D E F G H I J K L M N O P Q R S T U V W X Y Z # 

Revelations Bass tabs (ver.1)

Iron Maiden
Rating:
0/5 (0 votes)

Hard to play? Try these video lessons and learn fast.
                "(2)
Iron Maiden
Revelations
theres no versions i really liked so i decided to tab it out for my self so hear it is
Intro
G|-----------------------------------------------------------------------------------D|---------5-5-7-5-2-------------5-5-7-5-2-------------5-5-7-5-2-------------5-5-7-5-A|-------------------3-5-------------------3-5-------------------3-5------------3-5
E|-3-5-3-5---------------3-5-3-5---------------3-5-3-5---------------3-5-3-5--------

G|-----------------------------------------------------------------
D|-----------------------------------------------------------------
A|-----------------------------------------------------------------
E|-5-5-----1-1-----3-3-----5-555-3-5-5-----1-1-----3-3-----5-555-3-
                                                              
Verse 1
G|-----------------------------------------------------------------
D|-----------------------------------------------------------------
A|-----3-------3-------3---------------3-------3-------3-----------
E|-5-5-----1-1-----3-3-----5-555-3-5-5-----1-1-----3-3-----5-555-3-


Verse 2
G|---------------------------------------------------5-7-5-4-2-0---
D|-------3---2-3-2-------------------------3-3-5-7-5---------------
A|-0-3-5-----------3---3-5-3-2-----0-0-3-5-------------------------
E|-----------------------------3-0---------------------------------

G|-----------------------------------------------5-7-5-4-----------
D|-------3---2-3-2---------------------3-3-5-7-5-------------------
A|-0-3-5-----------3---5-3-2-----0-3-5-----------------------------
E|---------------------------3-0-----------------------------------


Bridge
G|----------------------------------------------------------------
D|----------------------------------------------------------------
A|-------------------5-------------------------5------------------
E|-5-3-5---5-3-5---3---1-3---5-3-5---5-3-5---3---1-3--------------

G|---------------------------------------------------------------------------------
D|---------------------------------------------------------------------------------
A|-----------------------------555-------------------------------------555---------
E|-5-3-5-5555-5-3-5-555555-333-----111-333-5-3-5-5555-5-3-5-555555-333-----111-333-

G|---------------------------------------------------------------------------------
D|---------------------------------------------------------------------------------
A|-----------------------------555-------------------------------------5-----------
E|-5-3-5-5555-5-3-5-555555-333-----111-333-5-3-5-5555-5-3-5-555555-3-------1---3---

 
Verse 3
G|---------------------------------------------------5-7-5-4-2-0---
D|-------3---2-3-2-------------------------3-3-5-7-5---------------
A|-0-3-5-----------3---3-5-3-2-----0-0-3-5-------------------------
E|-----------------------------3-0---------------------------------


Chorus
G|---------------------------------------------------------------------------------
D|---------------------------------------------------------------------------------
A|---------------3-5-5-3-5-3-------------------------3---5-5-3-5-3-----------------
E|-5-555-3-5-555-------------5-1-1-3-3-5-555-3-5-555---------------5---1-1---3-3---


Guitar Solo
G|----------------------------------------------------------------
D|----------------------------------------------------------------
A|-------------------5-------------------------5------------------
E|-5-3-5---5-3-5---3---1-3---5-3-5---5-3-5---3---1-3--------------

G|---------------------------------------------------------------------------------
D|---------------------------------------------------------------------------------
A|-----------------------------555-------------------------------------555---------
E|-5-3-5-5555-5-3-5-555555-333-----111-333-5-3-5-5555-5-3-5-555555-333-----111-333-

G|-----------------------------------------------------------------------------------
D|-------------5-3---------------------------------------5-3-------------------------
A|-5-3-5-00000-----5-0000000-55-33-22-000000-5-3-5-00000---5-0000000-55-33-22-000000-
E|-----------------------------------------------------------------------------------

G|-----------------------------------------------------------------------------------
D|-------------5-3---------------------------------------5-3-------------------------
A|-5-3-5-00000-----5-0000000-55-33-22-000000-5-3-5-00000---5-0000000-55-33-22-000000-
E|-----------------------------------------------------------------------------------

G|---------------------------------------------------------------------------------D|-------------5-3---------------------------------------5-3-------------------------A|-5-3-5-00000-----5-0000000-55-33-22-000000-5-3-5-00000---5-0000000-55-33-22-000000-
E|-----------------------------------------------------------------------------------

G|-----------------------------------------------------------------------
D|-----------------------------------------------------------------------
A|-000-3333-333-5555-000-3333-0-3-2-0-000-3333-333-5555-000-3333-0-3-2-0-
E|-----------------------------------------------------------------------

G|-----------------------------------------------------------------------
D|-----------------------------------------------------------------------
A|-000-3333-333-5555-000-3333-0-3-2-0-000-3333-333-5555-000-3333-0-3-2-0-
E|-----------------------------------------------------------------------

G|---------------------------------------------------------------------------------
D|---------------------------------------------------------------------------------
A|-----------------------------555-------------------------------------555---------
E|-5-3-5-5555-5-3-5-555555-333-----111-333-5-3-5-5555-5-3-5-555555-333-----111-333-

G|---------------------------------------------------------------------------------
D|---------------------------------------------------------------------------------
A|-----------------------------555-------------------------------------5-----------
E|-5-3-5-5555-5-3-5-555555-333-----111-333-5-3-5-5555-5-3-5-555555-3-------1---3---

Final Verse
G|-----------------------------------------------------------------
D|-----------------------------------------------------------------
A|-----------------------------------------------------------------
E|-5-5-----1-1-----3-3-----5-555-3-5-5-----1-1-----3-3-----5-555-3-

G|-----------------------------------------------------------------
D|-----------------------------------------------------------------
A|-----3-------3-------3---------------3-------3-------3-----------
E|-5-5-----1-1-----3-3-----5-555-3-5-5-----1-1-----3-3-----5-555-3-

G|-----------------------------------------------------------------
D|-----------------------------------------------------------------
A|-----3-------3-------3---------------3-------3-------3-----------
E|-5-5-----1-1-----3-3-----5-555-3-5-5-----1-1-----3-3-----5-555-3-

G|---------------------------------------------------5-7-5-4-2-0-2-------2---------
D|-------3---2-3-2-------------------------3-3-5-7-5-------------------------------
A|-0-3-5-----------3---3-5-3-2-----0-0-3-5---------------------------0-----------0-
E|-----------------------------3-0-------------------------------------------0-----




Intro                x1
Verse 1              x2
Verse 2              x1
Bridge               x1
Verse 3              x2
Chorus               x1
Verse 3              x2
Chorus               x2
Guitar Solo          x1
Final Verse          x1
"            
Hard to play? Try these video lessons and learn fast. | Correct




comments powered by Disqus
↑ Back to top | Tablatures and chords are parodies/interpretations of the original songs. You may use it for private study, scholarship, research or language learning purposes only