>
 >
Pilgrim

Pilgrim Guitar Tabs

Iron Maiden - Pilgrim chords, tabs, tablatures, lyrics

Guitar lessons | Add/correct | Request | Top 50 tabs Artists:  A B C D E F G H I J K L M N O P Q R S T U V W X Y Z 0-9

Pilgrim Guitar Tabs – Iron Maiden

CD, Sheet music, Poster

Do you like Pilgrim? Share with your friends now
Bass TabsTabs


My first tab - this song isn't too hard to play once you 
have the different rhythms down. 
Couldn't figure out the solo though - if you do, please let me know.



Key - 
p- Pull of
h- Hammer on
\- Slide
.- Palm mute


INTRO
Lead
E- -----------------|---------------|--------------|
B- 12-12-10---------|10-10-12-13-12-|12-10---------|
G- ---------12-11-9-|---------------|------12-11-9-|
D- -----------------|---------------|--------------|
A- -----------------|---------------|--------------|
E- -----------------|---------------|--------------|
   
E- -----------------|--------------|-------------|
B- 12-12-10---------|10-10---------|-------------|
G- ---------12-11-9-|------12-11-9-|12-11-9----9-|
D- -----------------|--------------|--------12---|
A- -----------------|--------------|-------------|
E- -----------------|--------------|-------------| 

E- -----------------|---------------|--------------|
B- 12-12-10---------|10-10-12-13-12-|12-10---------|
G- ---------12-11-9-|---------------|------12-11-9-|
D- -----------------|---------------|--------------|
A- -----------------|---------------|--------------|
E- -----------------|---------------|--------------|
   
E- -----------------|---------------|
B- 12-12-10---------|10-10----------|
G- ---------12-11-9-|------12-11-9--|
D- -----------------|---------------|
A- -----------------|---------------|
E- -----------------|---------------|

Rhythm
E- ---------|----|--------|---------|----|--------|
B- ---------|----|--------|---------|----|--------|
G- 999--555-|777-|999-9\7-|999--555-|777-|--------|
D- 999--555-|777-|999-9\7-|999--555-|777-|777-7\5-|
A- 777--333-|555-|777-7\5-|777--333-|555-|777-7\5-|
E- ---------|----|--------|---------|----|555-5\3-|

E- ---------|----|--------|---------|----|---|
B- ---------|----|--------|---------|----|---|
G- 999--555-|777-|999-9\7-|999--555-|777-|---|
D- 999--555-|777-|999-9\7-|999--555-|777-|7--|
A- 777--333-|555-|777-7\5-|777--333-|555-|7--|
E- ---------|----|--------|---------|----|5--|


INTRO Pt2
E- ----------------------|-------------------|
B- ----------------------|-------------------|
G- ----------------------|-------------------|
D- 9999-9-99-9-99-9-99-9-|99-9-99-9-99-9-99-9|
A- 7777-7-77-7-77-7-77-7-|77-7-77-7-77-7-77-7|
E- ----------------------|-------------------|
PM ....   ..   ..   ..    ..   ..   ..   ..   




VERSE
E- ------------------|------------------|
B- ------------------|------------------|
G- ------------------|------------------|
D- 99-9-9-9-9-9-9-99-|55-5-5-5-5-5-5-55-|
A- 77-7-7-7-7-7-7-77-|33-3-3-3-3-3-3-33-|
E- ------------------|------------------|
PM ..   .   .   .     ..   .   .   .        

E- ------------------|------------------|
B- ------------------|------------------|
G- ------------------|------------------|
D- 77-7-7-7----------|99-9-9-9-9-9-9-99-|
A- 55-5-5-5-7-7-7-77-|77-7-7-7-7-7-7-77-|
E- ---------5-5-5-55-|------------------|
PM ..   .   .   .     ..   .   .   .     

E- ------------------|------------------|
B- ------------------|------------------|
G- ------------------|------------------|
D- 99-9-9-9-9-9-9-99-|55-5-5-5-5-5-5-55-|
A- 77-7-7-7-7-7-7-77-|33-3-3-3-3-3-3-33-|
E- ------------------|------------------|
PM ..   .   .   .     ..   .   .   .     

E- ---------------------|------------------|
B- ---------------------|------------------|
G- ---------------------|------------------|
D- -----------------7-7-|99-9-9-9-9-9-9-99-|
A- 77-7-7-7-5-5-9-9-5-5-|77-7-7-7-7-7-7-77-|
E- 55-5-5-5-3-3-7-7-----|------------------|
PM ..   .   .   .   .    ..   .   .   .     



CHORUS
Lead 1
E- ------------------|---------|------------------|-----------|
B- 12----10-12-10----|---10-12-|12----10-12-10----|--------12-|
G- ---12----------11-|12-------|---12----------11-|9-11-12----|
D- ------------------|---------|------------------|-----------|
A- ------------------|---------|------------------|-----------|
E- ------------------|---------|------------------|-----------|

Lead 2
E- ------------------|---------|------------------|-----------|
B- ------------------|---------|------------------|-----------|
G- 12----11-12-11----|---11----|12----11-12-11----|------12-9-|
D- ---14----------12-|14----12-|---14----------12-|10-12------|
A- ------------------|---------|------------------|-----------|
E- ------------------|---------|------------------|-----------|

Rhythm
E- --------------------|--------------------|
B- --------------------|--------------------|
G- --------------------|--------------------|
D- 9-9-9-9-9-5-5-5-5-5-|7-7-7-7-7-----------|
A- 7-7-7-7-7-3-3-3-3-3-|5-5-5-5-5-9-9-9-9-9-|
E- --------------------|----------7-7-7-7-7-|
PM   .   .     .   .      .   .     .   .    

E- --------------------|--------------------|
B- --------------------|--------------------|
G- --------------------|--------------------|
D- 5-5-5-5-5-7-7-7-7-7-|9-9-9-9-9-9-9-9-9-9-|
A- 3-3-3-3-3-5-5-5-5-5-|7-7-7-7-7-7-7-7-7-7-|
E- --------------------|--------------------|
PM   .   .     .   .      .   .     .   .


CHORUS Pt2
E- ----------|-----------|----------|-----------|
B- ----------|-----------|----------|-----------|
G- 9-7-6-7-7-|-------7-7-|9-7-6-7-7-|-----------|
D- 7-5-4-5-5-|10-9-7-5-5-|7-5-4-5-5-|10-9-7-7-7-|
A- ----------| 8-7-5-----|----------| 8-7-5-5-5-|
E- ----------|-----------|----------|-----------|




INTERLUDE
Lead
E- --------------------|----------------------|
B- -----9h10p9---------|-----9h10p9-10p9h10p9-|
G- 9-10--------10-10p9-|9-10------------------|
D- --------------------|----------------------|
A- --------------------|----------------------|
E- --------------------|----------------------|

Rhythm
E- ----------------|------------------|
B- ----------------|------------------|
G- ----------------|------------------|
D- ----6h7p6-------|----6h7p6-7p6h7p6-|
A- 7-8-------8-8p7-|7-8---------------|
E- ----------------|------------------|


INTERLUDE Pt2
Lead
E- ----------------|------------------|
B- ----5h6p5-------|----5h6p5-6p5h6p5-|
G- 5-6-------6-6p5-|5-6---------------|
D- ----------------|------------------|
A- ----------------|------------------|
E- ----------------|------------------|

Rhythm

E- ----------------|------------------|
B- ----------------|------------------|
G- ----------------|------------------|
D- ----2h3p2-------|----2h3p2-3p2h3p2-|
A- 3-4-------4-4p3-|3-4---------------|
E- ----------------|------------------|




SOLO
Rhythm
E- ---------------|----------------|
B- ---------------|----------------|
G- ---------------|----------------|
D- 99-99-99-99-97-|99-99-99-99-910-|  Repeat x4
A- 77-77-77-77-75-|77-77-77-77-7 8-|
E- ---------------|----------------|
PM .  .  .  .  .   .  .  .  .  .   



ORDER

Intro
Intro Pt2

Verse
Chorus
Chorus Pt 2

Interlude (Repeat)
Interlude Pt 2 (Repeat)

Verse 2
Chorus 2
Chorus 2 Pt2

Interlude (Repeat)
Interlude Pt 2 (Repeat)

Solo

Chorus 3       }
Chorus 3 Pt 2  }(Repeat)

Interlude (Repeat)
Interlude Pt 2 (Repeat)

Intro





Comments


Popular Iron Maiden tabs & chords
Brave New World 3 Bass Tabs
Hallowed Be Thy Name 3 Bass Tabs
No More Lies Bass Tabs
The Number Of The Beast 1 Bass Tabs
Age Of Innocence 1 Tabs
Avenging Angels Tabs
Brighter Than A Thousand Suns 3 Tabs
Children Of The Damned Tabs
Futureal Tabs
Hallowed Be Thy Name 4 Tabs


Song lyrics



↑ Back to top | Tablatures and chords are parodies/interpretations of the original songs. You may use it for private study, scholarship, research or language learning purposes only
© 2014 AZChords.com Contact us | Privacy policy | DMCA | Add/correct tabs | Request tabs | Top 50 tabs